E-Chords
Katie Melua

Faraway Voice(Chords)

Katie Melua

roll up this ad to continue

Key: Db
Intro: 
 
   Dbmaj7                     Ab 
 -------------------------- --------------------------  
 -------------------------- --------------------------  
 --------5-----------5----- --------5-----------5-----  
 -----6-----6-----6-----6-- -----6-----6-----6-----6--  
 --4-----------4----------- --------------------------  
 -------------------------- --4-----------4-----------  
 
   Dbmaj7                     Ab 
 -------------------------- --------------------------  
 -------------------------- --------------------------  
 --------5-----------5----- --------5-----------5-----  
 -----6-----6-----6-----6-- -----6-----6-----6-----6--  
 --4-----------4----------- --------------------------  
 -------------------------- --4-----------4----------- 
Uhooooooohoo Dbmaj7 Ab Faraway voice, Dbmaj7 Ab We can hear you voice, Dbmaj7 Ab What's it like to be heard, Dbmaj7 Ab But from you not a word, Eb7 Ab Are you over those hills, Eb7 Ab Do you still hum the old melodies, Eb7 Ab Do you wish people listened, Eb7 Ab Over here with me Dbmaj7 Ab Dbmaj7 Ab uuuuuuuuuuuuuuhh Dbmaj7 Ab Faraway voice, Dbmaj7 Ab What I would give, oh give, to hear that voice, Dbmaj7 Ab What's it like to breath, Dbmaj7 Ab My ears deceive me voice, E7 E And I will walk with you Abm7 Abm on a summer's day, E7 E And I will talk to you, Abm7 Abm Though you're faraway, E Ab And we'll sing through the years, Eb7 Ab Are you over those hills, Eb7 Ab Do you still hum the old melodies, Eb7 Ab Do you wish people listened, Eb7 Ab Over here with me Eb7 Ab Over here with me Eb7 Ab Over here with me Dbmaj7 Ab Dbmaj7 Ab ooooooh Dbmaj7 Ab Dbmaj7 Ab ooooooh ******************* [email protected] á voz da consciencia!!! Dbmaj7 x-4-6-5-6-4 Ab - 4-6-6-5-4-4 Eb7 - x-6-8-6-8-6 E - x-6-8-8-8-6 Abm7 - 4-6-4-4-4-4 Abm - 4-6-6-4-4-4
share this page

See Also: