E-Chords
Kasabian

Where Did All The Love Go(Chords)

Kasabian

Key: Abm

Verse: 

Abm 
Ever took a punch in the ribcage sonny? 
Abm 
Ever met a soul who had no shrine? 
F#                    C#                        Abm 
Keep this all in your mind and get it inside my window 


Abm B Abm B Where did all the love go? E C#m E G I dont know, I dont know (I bet you cant see it)
Interlude: Abm F# The rivers of the pavement E C#m Are flowing now with blood Abm F# The children of the future E C#m Are drowning in the flood
Solo: 
|-----------------------------------------------------------------------| 
|-----------------------------------------------------------------------| 
|-----------------------------------------------------------------------| 
|-----------------------------------------------------------------------| 
|--10-9-10-9------------------------------------------------------------| 
|-------------12-11-12-11---10-9-10-9--8-7-8-7--6-5-6-5-6-5-6-5-6-5-6-5-| 


|------------------------------------------------------| 
|--10-9-797-------------------10--97-------------------| 
|----------898--64-686--------------8---98-6----46-86--| 
|------------------------------------------------------| 
|------------------------------------------------------| 
|------------------------------------------------------| 


|------------------------------------------------------| 
|--10-9-797--------------------------------------------| 
|-----------898--64-686------346----646-8----6-898--6--| 
|------------------------------------------------------| 
|------------------------------------------------------| 
|------------------------------------------------------| 

roll up this ad to continue

share this page

See Also: