E-Chords
Kasabian

Underdog(Chords)

Kasabian

Key: Fm
(intro)  Fm 

(riff 2x) 
E |------------------------|-----------------------| 
B |------------------------|-----------------------| 
G |----10--10--10--10--10--|-----------------------| 
D |------------------------|---8---8---8---8---8---| 
A |--8---8---8---8---8-----|-6---6---6---6---6-----| 
E |------------------------|-----------------------| 

E |------------------------|-----------------------| 
B |------------------------|-----------------------| 
G |------------------------|--10--10--10--10---10--| 
D |----5---5---3---3---3---|-----------------------| 
A |--3---3---1---1---1-----|-8---8---8---8----8----| 
E |------------------------|-----------------------|
Fm Kill me if you dare Eb Hold my head up everywhere Cm Bb Fm Keep myself right on this train Fm I?m the Underdog Eb Live my life on a lullaby Cm Bb Fm Keep myself riding on this train Cm Bb Fm Keep myself riding on this train Fm Eb Love in technicolour, sprayed out on walls Cm Bb Well I?ve been pounding at the pavement Fm ?Til there?s nothing at all Fm I got my cloak and dagger Eb In a bar room brawl Cm Bb See the local loves a fighter Fm Loves a winner to fall Fm Ab Feels like I?m lost in a moment Bb Fm I?m always losing to win Fm Ab Can?t get away from the moment Bb Fm Seems like it?s time to begin Fm Kill me if you dare Eb Hold my head up everywhere Cm Bb Fm Keep myself right on this train Fm I?m the Underdog Eb Live my life on a lullaby Cm Bb Fm Keep myself riding on this train Cm Bb Fm Keep myself riding on this train Fm It don?t matter Eb I won?t do what you say Cm Bb You?ve got the money and the power Fm I won?t go your way Fm And I can?t take for the people Eb They don?t matter at all Cm Bb And I?ll be waiting in the shadows Fm ?Til the day that you fall Fm Ab Feels like I?m lost in a moment Bb Fm I?m always losing to win Fm Ab Can?t get away from the moment Bb Fm Seems like it?s time to begin (break) Fm
(solo) 
E |-----------------------------------------| 
B |-----------------------------------------| 
G |-----------------------------------------| 
D |---------/6~----------10~-10-10-10/810--| 
A |-8~--6~------8-6-8~----------------------| 
E |-----------------------------------------| 

E |------------------------------------| 
B |----9/119--------------------------| 
G |-8~---------10~-8-------------------| 
D |-------------------8-8h10p8---------| 
A |-----------------------------11-8~--| 
E |------------------------------------| 

E |----------------------------------------| 
B |---------------9-11~--9-11-13-13-9------| 
G |----8-------10---------------------10~-| 
D |------8/10~-----------------------------| 
A |-8--------------------------------------| 
E |----------------------------------------| 

E |--------------------------13-11b----------| 
B |-13-13-13---9----9-11-13~-----------96~/-| 
G |--------------10~----------------10-------| 
D |------------------------------------------| 
A |------------------------------------------| 
E |------------------------------------------| 

E |-1613-11/13~-13-11------------------| 
B |--------------------9~6~--13~6/13--| 
G |-------------------------------------| 
D |-------------------------------------| 
A |-------------------------------------| 
E |-------------------------------------| 

E |------------------8---------------8--------------8--------------| 
B |-----------119~----9b--------------9b------------9b------------| 
G |-8/10~--8~------------10~--8/10~------10~--8/10~------10~-8/10~-| 
D |----------------------------------------------------------------| 
A |----------------------------------------------------------------| 
E |----------------------------------------------------------------| 

E |---------------------------------| 
B |---------------------------------| 
G |-8~--10~-------8~---10~----------| 
D |---------8~---------------8~-----| 
A |---------------------------------| 
E |---------------------------------|
Fm Kill me if you dare Eb Hold my head up everywhere Cm Bb Fm Keep myself right on this train Fm I?m the Underdog Eb Live my life on a lullaby Cm Bb Fm Keep myself riding on this train Cm Bb Fm Keep myself riding on this train Fm Tell me if you?re down Eb Throw your weapons to the ground Cm Bb Fm Keep myself riding on this train Fm Paper on the wire Eb Sold your soul for another one Cm Bb Fm Keep myself riding on this train Cm Bb Fm Keep myself riding on this train

roll up this ad to continue

share this page

See Also: