E-Chords
Kasabian

Take Aim(Chords)

Kasabian

Key: Dm
 
Riff: 
e|-------------------------------------------------| 
B|-------------------------------------------------| 
G|-------------------------------------------------| 
D|---0-0---0-0---0-0---0-0---5-5---3-3---0-0---0-0-| 
A|-0-----0-----0-----0-----0-----0-----0-----0-----| 
E|-------------------------------------------------| 

Refrão - Riff: 
e|-----------------------------| 
B|-8-10-8-10-15-13-11-10-11-10-| 
G|-----------------------------| 
D|-----------------------------| 
A|-----------------------------| 
E|-----------------------------| 

Intro: 
 Dm 
e|-----------------------------------------------------------------| 
B|-------5-6-8-6-5----------5-6-8-6-5---------5-6-8-6-5------------| 
G|-7~-7------------7-5-7~-7-----------7-5-7~-7----------7-5--------| 
D|----------------------------------------------------------7-5-7~-| 
A|-----------------------------------------------------------------| 
E|-----------------------------------------------------------------| 
Dm Nightmares, oh nightmares come on now Gm F Dm Getting my days all wrong now Dm Risen from prison an outlaw Gm F Dm Spending our time in the lion?s jaw Bm Dm Bm Dm In the end you sink or swim F Dm F Gm Dm I?m eager, I?m eager? ( Dm Gm F Dm Gm F )
 
e|---------------------------------------------------------------------| 
B|---------------------------------------------------------------------| 
G|---------------------------------------------------------------------| 
D|-3-5h7-7~---5-5---3-3--3-3h5-0---0-0--0-0-3-5h7-7~----5-5--3-3-3h5-0-| 
A|----------0-----0---------------0----0--------------0-----0----------| 
E|---------------------------------------------------------------------| 
 
Dm Love them oh love them come on now Gm F Dm Socially biting your tongue now Dm Run down oh run down old houses Gm F Dm Feeding the cats to the mouses Dm Oh take aim now! Dm Oh take aim now! Gm F Dm Can you see me in the way now Dm Oh take aim now! Dm Oh take aim now! Gm F Dm Gotta get us out of here ( Dm Gm F Dm Gm F ) Dm Drug them and give them star prizes Gm F Dm Lock them away in high rises Dm Held up and called on by truncheons Gm F Dm Rattling keys to the dungeons Dm Oh take aim now! Dm Oh take aim now! Gm F Dm Can you see me in the way now Dm Oh take aim now! Dm Oh take aim now! Gm F Dm Gotta get us out of here ( Dm Gm F Dm Gm F ) Gm Dm Don?t take me over Gm I bid you all farewell F Dm I?ve got to leave? Gm Dm Tears on my shovel Gm F Dm Switch me off today Dm Oh take aim now! Dm Oh take aim now! Gm F Dm Can you see me in the way now Dm Oh take aim now! Dm Oh take aim now! Gm F Dm Gotta get us out of here Dm Oh take aim now! Dm Oh take aim now! Gm F Dm Can you see me in the way now Dm Oh take aim now! Dm Oh take aim now! Gm F Dm Gotta get us out of here ( Dm Gm F Dm Gm F )
 
e|---------------------------------------| 
B|-10-11-10-11-10-11-10-11-13-11-10-9-10-| 
G|---------------------------------------| 
D|---------------------------------------|  (2x) 
A|---------------------------------------| 
E|---------------------------------------| 
 
Gm Dm Don?t take me over Gm I bid you all farewell F Dm I?ve got to leave?

roll up this ad to continue

share this page

See Also: