E-Chords
Kanye West

Closed On Sunday(Chords)

Kanye West

roll up this ad to continue

Key: Bm
Capo on 2nd fret
 
Intro Am  Dm7  E4 
        F7M  Dm7  E4 
E|----------------------------------------------------| 
B|-------1-1p0-----0-----------------1-1p0-----0------| 
G|-----2-------2-2-----------------2-------2-2--------| 
D|---2---------2-3---------------2---------2-3--------| 
A|-0---------------------------0----------------------| 
E|----------------------------------------------------| 

E|-------1-------0--------------------1-------0-------| 
B|-----1---1p0----------------------1---1p0-----------| 
G|---2---------2------------------2---------2---------| 
D|-0----------------------------0---------------------| 
A|----------------------------------------------------| 
E|----------------------------------------------------| 

E|----------------------------------------------------| 
B|--------0---------------------0---------------------| 
G|------2---2---1-------------2---2---1---------------| 
D|----2-------2-------------2-------2-----------------| 
A|----------------------------------------------------| 
E|-0---------------------0----------------------------| 

E|----------------------------------------------------| 
B|-------1-1p0-----0-----------------1-1p0-----0------| 
G|-----2-------2-2-----------------2-------2-2--------| 
D|---2---------2-3---------------2---------2-3--------| 
A|----------------------------------------------------| 
E|-1---------------------------1----------------------| 

E|-------1-------0--------------------1-------0-------| 
B|-----1---1p0----------------------1---1p0-----------| 
G|---2---------2------------------2---------2---------| 
D|-0----------------------------0---------------------| 
A|----------------------------------------------------| 
E|----------------------------------------------------| 

E|----------------------------------------------------| 
B|--------0---------------------0---------------------| 
G|------2---2---1-------------2---2---1---------------| 
D|----2-------2-------------2-------2-----------------| 
A|----------------------------------------------------| 
E|-0---------------------0----------------------------| 
Am Closed on Sunday, you're my Chick-fil-A Dm7 Closed on Sunday, you my Chick-fil-A E4 Hold the selfies, put the 'Gram away F7M Get your family, all y'all hold hands and pray Dm When you got daughters, always keep 'em safe E4 Watch out for vipers, don't let them indoctrinate
Am Closed on Sunday, you my Chick-fil-A Dm7 You're my number one, with the lemonade E4 Raise our sons, train them in the faith F7M Through temptations, make sure they're wide awake Dm7 Follow Jesus, listen and obey E4 No more livin' for the culture, we nobody's slave ( Am ) Am Stand up for my home F Even if I take this walk alone I bow down to the King upon the throne Am My life is His, I'm no longer my own I pray to God that He'll strengthen my hand F They will think twice steppin' onto my land Dm7 I draw the line, it's written in the sand Am Try me and you will see that I ain't playin' Am Now, back up off my family, move your hands F I got my weapons in the spirit's land Am I, Jezebel don't even stand a chance Dm Am Jezebel don't even stand a chance Chick-fil-A!
share this page

See Also: