E-Chords
Kanye West

All Day(Chords)

Kanye West

roll up this ad to continue

Key: Am
Intro 
----------------------------------------------------------------| 
----------------------------------------------------------------| 
----------------------------------------------------------------| 
----------------------------------------------------------------| 
----------8-7-5----5----7--------7--8-7-5---5----7--------------| 
--5-/-12---------8----8----5--------------8----8---5------------| 


for the rest you can do this in power chords or open chords 
-----------------------------------------------------------------------------| 
-----------------------------------------------------------------------------| 
------------9-/-10-----------------------------------------------------------| 
---7--x-x-x-9-/-10-----------------------------------------------------------| 
---7--x-x-x-7-/-8---7-8-7-8--------------------------------------------------| 
---5-------------------------------------------------------------------------| 
Am Em F Em F Em F All day, nigga Hook 1: Kanye West Am Em F Em F Em F All day, nigga Am Em F Em F Em F How long you niggas ball? All day, nigga Am Em F Em F Em F How much time you spent at the mall? All day, nigga Am Em F Em F Em F How many thots do you got on call? All day, nigga Am Em F Em F Em F H-how long they keep you in court? All day, nigga Am Em F Em F Em F Take you to get this fly? All day, nigga Am Em F Em F Em F Tell your P.O. how how long you been high? All day, nigga Am Em F Em F Em F Y'all already know I'm straight from the Chi, all day, nigga Am Em F Em F Em F South, south, south side! All day, nigga verse 1: Kanye West It's Ye, nigga Am F Shoppin' for the winter, and it's just May, nigga Am Ball so hard, man, this shit cray, nigga F And you ain't gettin' money 'less you got eight figures Am From the Jesus piece, man, I've been saved, nigga F Just talked to Farrakhan, that's sensei, nigga Am Told him I've been on ten since 10th grade, nigga F Got a middle finger longer than Dikembe, my nigga, uh Am I don't let 'em play with me F I don't let 'em talk to me no kind of way Am You better watch what you say to me F People still gettin' popped on the day to day Am Still got the 100 with the small face, nigga Might spend 50 racks on my off day, nigga F You a fake Denzel like the Allstate, nigga Am If you run into me, better have Allstate with you F You a Rico Suave, nigga Am Drive around listening to Sade, nigga F If you ain't with us, you in our way, nigga Am You an actor, you should be on Broadway, nigga F Cause you do shit the broad way, nigga Am Your bitch got an ass, but my broad way thicker F Late for the class, in the hallway, nigga Am Yeah, the dropout at it as always, nigga Bridge: Allan Kingdom Am At a Tuesday in a sweet bread, and I reached into my head Gave him what I had left At that moment I disperse (All day!) At that moment I disperse (All day!) Hook 2: Kanye West All day, nigga Am F How long y'all playas ball? All day, nigga Am F How much time y'all spent at the mall? All day, nigga Am How long it take you to get this fly? All day, nigga F Tell your P.O. how how long you been high? All day, nigga Am Pour some Hen out for my niggas that died, all day, nigga F And I keep a bad chick on the passenger side, all day, nigga Am Y'all already know that I'm straight from the Chi, all day, nigga F South, south, south side! All day, nigga
----------------------------------------------------------------| 
----------------------------------------------------------------| 
----------------------------------------------------------------| 
----------------------------------------------------------------| 
----------8-7-5----5----7--------7--8-7-5---5----7--------------| 
--5-/-12---------8----8----5--------------8----8---5------------| 
verse 2: Kanye West Am I could do this all day, boy, I'm 'bout to turn this bitch out F That nigga Ye in the streets, boy, there's never really been a drought Am Don't make me rhyme when I'm late, boy, you know I still go wild F I'm like a light skinned slave, boy, we in the mothafuckin' house Am Right now, lookin' real sus right now F I swear I've been on this flight like a month right now Am Stupid niggas gettin' paid, Forrest Gump right now F Shout-out to Jackie Chan, I need to stunt right now Am I've been lookin' at the Gram, I've been lookin' at the Grammys F Like, whoo, that's us right now Am 24/7, 365 days, everybody gettin' paid F People lookin' at me like I'm worth both MJs Am Screamin, 'Ye, Ye, take it easy' F 20 Gs for the Yeezys on the ebay Am People do the most and they ain't done shit F Only way we can sum it up, son of a bitch Bridge: Allan Kingdom Am At a Tuesday in a sweet bread, and I reached into my head Gave him what I had left At that moment I disperse (All day!) At that moment I disperse (All day!) Outro: Am Get Low, get low Stay low, stay low Ah yeah Stay low, hold on Yo Skepta! Thank you All day
share this page

See Also: