E-Chords
Kaleidoscope

Overture(Chords)

Kaleidoscope

roll up this ad to continue

Tuning: 1/4 step down. 

2:09 

G|--------------------------------5-------------------------------| 
D|----------------2-------5-----------------------7---5---3-------| 
A|3-------5-------------------------------------------------------| 
E|----------------------------------------------------------------| 

G|5---------------5---------------5-------------------------------| 
D|------------------------------------------------7---5---3-------| x2 
A|----------------------------------------------------------------| 
E|----------------------------------------------------------------| 

G|----------------------------------------------------------------| 
D|5-----------------------------------------------2-------5-------| 
A|--------------------------------2-------5-----------------------| 
E|----------------3-------5---------------------------------------| 

2:24 

G|5---------------5---------------5-------------------------------| 
D|------------------------------------------------7---5---3-------| x2 
A|----------------------------------------------------------------| 
E|----------------------------------------------------------------| 

G|5---------------5---------------5-----------------------------------| 
D|------------------------------------------------7---5---3-------5---| 
A|--------------------------------------------------------------------| 
E|--------------------------------------------------------------------| 
share this page

See Also: