E-Chords
Kaleb & Josh

Aviva-nos / A Terra Clama / Fogo E Glória (pout-pourri)(Chords)

Kaleb & Josh

Key: Dm
Capo on 1st fret
 
Intro A7M  B  C#m G#m 
        A7M  B  C#m G#m 
        A7M  B  C#m G#m 

E|-19-21----------------19-21---------------| 
B|-------21~~--16~------------21~~--16~-----| 
G|-----------------18~------------------18~-| 
D|------------------------------------------| 
A|------------------------------------------| 
E|------------------------------------------|
E|-19-21----------------19-21---------------| 
B|-------21~~--16~------------21~~--16~-----| 
G|-----------------18~------------------18~-| 
D|------------------------------------------| 
A|------------------------------------------| 
E|------------------------------------------|
E|-19-21------------------------------------| 
B|-------21~~-------------------------------| 
G|------------------------------------------| 
D|------------------------------------------| 
A|------------------------------------------| 
E|------------------------------------------|
A7M Enche esse ambiente B C#m G#m Enche esse lugar A7M Te damos liberdade B C#m G#m Que caia o Teu espírito A7M Enche esse ambiente B C#m G#m Enche esse lugar A7M Te damos liberdade B C#m G#m Que caia o Teu espírito A7M Vem fazer o que nenhum homem fez B Vem fazer o que a história nunca viu C#m Vem cumprir o descrito em Joel G#m Aviva-nos aviva-nos A7M Vem fazer o que nenhum homem fez B Vem fazer o que a história nunca viu C#m Vem cumprir o descrito em Joel G#m Aviva-nos aviva-nos ( A7M B C#m G#m ) A7M Enche esse ambiente B C#m G#m Enche esse lugar A7M Te damos liberdade B C#m G#m Que caia o Teu espírito A7M Enche esse ambiente B C#m G#m Enche esse lugar A7M Te damos liberdade B C#m G#m Que caia o Teu espírito A7M Vem fazer o que nenhum homem fez B Vem fazer o que a história nunca viu C#m Vem cumprir o descrito em Joel G#m Aviva-nos aviva-nos A7M Vem fazer o que nenhum homem fez B Vem fazer o que a história nunca viu C#m Vem cumprir o descrito em Joel G#m Aviva-nos aviva-nos A7M Vem fazer o que nenhum homem fez B Vem fazer o que a história nunca viu C#m Vem cumprir o descrito em Joel G#m Aviva-nos aviva-nos A7M Vem fazer o que nenhum homem fez B Vem fazer o que a história nunca viu C#m Vem cumprir o descrito em Joel G#m A7M Aviva-nos aviva-nos Senhor B C#m G#m Aviva-nos aviva-nos Senhor ( A7M B C#m G#m ) A7M Que seja hoje, que seja agora B Vem e derrama do teu espirito C#m Que seja hoje, que seja agora G#m Vem e derrama do teu espirito A7M Que seja hoje, que seja agora B Vem e derrama do teu espirito C#m Que seja hoje, que seja agora G#m Vem e derrama do teu espirito A7M Que seja hoje, que seja agora B Vem e derrama do teu espirito C#m Que seja hoje, que seja agora G#m Vem e derrama do teu espirito A7M Que seja hoje, que seja agora B Vem e derrama do teu espirito C#m Que seja hoje, que seja agora G#m Vem e derrama do teu espirito A7M A Terra clama ôôô B C#m A Terra chama chama chama A7M Mais uma vez queremos ver B C#m O céu descer A7M A Terra clama ôôô B C#m A Terra chama chama chama A7M Mais uma vez queremos ver B C#m O céu descer A7M Que seja hoje, que seja agora B Vem e derrama do teu espirito C#m Que seja hoje, que seja agora G#m Vem e derrama do teu espirito A7M Que seja hoje, que seja agora B Vem e derrama do teu espirito C#m Que seja hoje, que seja agora G#m Vem e derrama do teu espirito A7M Que seja hoje, que seja agora B Vem e derrama do teu espirito C#m Que seja hoje, que seja agora G#m Vem e derrama do teu espirito A7M Que seja hoje, que seja agora B Vem e derrama do teu espirito C#m Que seja hoje, que seja agora G#m Vem e derrama do teu espirito Final A7M B C#m G#m A7M B C#m G#m

roll up this ad to continue

share this page

See Also: