E-Chords
Kadebostany

Walking With A Ghost(Chords)

Kadebostany

Key: Cm
           Cm                   A#                   G#                   G 
e|----------3-----------------------------------------------------------------------| 
B|-------4----4------------------6--------------------4--------------------3--------| 
G|-----5--------5-------------7----7---------------5----5---------------4----4------| 
D|---5------------5---------8--------8-----------6--------6-----------5--------5----| 
A|-3----------------------8------------8-------6------------6-------5------------5--| 
E|----------------------6--------------------4--------------------3-----------------| 
          x2                   x2                   x2                    x2   

                   
Intro: Cm x4 


Cm 
i'm just walking with a ghost 
         A# 
And he's walking by my side 
    G#                      
My soul is dancing on my cheek 
  G 
I don't know where the exit is 


Cm 
Every day is still the same 
       A# 
And I don't know what to do 
                 G#  
I'm carrying my tears in a plastic bag 
             G 
And it's the only thing I got from you 


(Strumming) 

   Cm                      
I wish i could be a child,  
           A#                        
write me another dance,  
                            G#     
another chance, another romance 
                        G        
we could just be friends 

   Cm    
I wish i could be a child,  
           A#                        
write me another dance,  
                            G#     
another chance, another romance 
                  G        
it could be the end 


(strumming, powerchords can be used) 

                Cm                            
I have short hair 
                                              
And I'm faced with a few complications 
                A#             
So, so if you care 
                                           
Try to analise the situation 
             G#                                
You know, man 
                                            
As the leaves fall on the ground 
                                           
My soul is goin' 
G                                            
Round and round and round 


                   Cm                     
So please, do it well 
                                     
Just break the spell 
                                   
Why don't you do it right? 
   A#                                 
I don't want another fight 
                                  
I'm not creatin'  
    G#                              
My flow with my ego  
                                  
I'm taking off my hood 
      G                                          
And I'm entering deeply in the wood 
                                           
You know, man 


Cm 
Bugs are my only food 
                                         
And it puts me in a strange mood 
              A#                           
I ain't giving you my heart 
                                         
On a silver plate 
                 G#                        
Why couldn't we be just mates? 
                               G          
Oh no, never come back to me 
                                         
Oh no, never come back to me 


|---8-10-11---11-11-10-8----8-10h11p10p8h10---10-10-8-6---6-8h10p8p6h8-----8-8-6------| 
|-8----------------------11-----------------------------9------------------------9-8--| 
|-------------------------------------------------------------------------------------| 
|-------------------------------------------------------------------------------------| 
|-------------------------------------------------------------------------------------| 
|-------------------------------------------------------------------------------------|  

roll up this ad to continue

share this page

See Also: