E-Chords
Kaab Nqaus Vas

Paj Yeeb Ntsa(Chords)

Kaab Nqaus Vas

roll up this ad to continue

Key: C
Intro 

E|---------------------------------------------------------------------------------| 
B|----------------------------------1----------------------------------------------| 
G|---------0h2-0-0-----0h2--0--0-------2--0----------------------------------------| 
D|-------------------------------------------2--2-----0---0h2--0--0---0h2--0--0----| 
A|--3----3-----------------------------------------3-------------------------------| 
E|----3----------------------------------------------------------------------------| 

E|---------------------------------------------------------------------------------| 
B|----------------------------------1----------------------------------------------| 
G|---------0h2-0-0-----0h2--0--0-------2--0------------------------------0---------| 
D|-------------------------------------------2--2-----0-----0--0---2--2------------| 
A|--3----3-----------------------------------------3------------------------2------| 
E|----3----------------------------------------------------------------------------| 

Verse 1:

C kuv pom paj yeeb ntsa G kuv lub siab xav tau ntau yam C nco dheev txog mos mim Am kuv lub siab yuj li plaws li yib G C raws li ntua rau mos mim

Verse 2:

C paj yeeb ntsa mos mim G tag sawv dawm hluas nkauj ntawm no C kuv pom koj ib leeg Am thiaj li tshiab li lub paj yeeb G C ua kuv hnia tws tws qab

Verse 3:

C mos mim paj yeeb nsta G kuv hais tias tias tsis yog lam dag C yog hmoob tsis sib sua Am wb tua tes mus tsaws tsua tuag G C mam sib yuav hauv nruag dab
share this page

See Also: