E-Chords
Julie Doiron

Life Of Dreams(Chords)

Julie Doiron

Key: C
C 
I'm living the life of dreams,  
    F                   C  
I'm living the life of dreams 
          F            C            G         F        C 
With good people all around me I'm living the life of dreams 


C 
I'm feeling hopefully,  
F                  C 
feeling quite hopefully 
          F            C            G      F      C 
with good people all around me I'm feeling hopefully 


         F            G     C   G          Am 
And the light shines bright all through the night  
        F          G              C       A# 
and our dreams are making us nice stories 
       F          G 
And my loves, are well, 
C      G      Am  
sleeping just right 
      F                  G   Em F 
and I know know know know now that we're... 


C 
Living the life of dreams, 
F                  C  
living the life of dreams 
          F          C            G          F        C                  F  G C G Am F G C 
with good people all around we're living the life of dreams, dreams, dreams... 


If you want, you can use the G chord as a transition between most of the other chords.  you can hear it when you 
listen to the song.  


Verse: 
e|---------------------------------------------------------------------------| 
B|---------------------------------------------------------------------------| 
G|---------------------------------------------------------------------------| 
D|-2-2-2-2-2-2-2-2-2-2-2-0-3-3-3-3-3-0-2-2-2-2-2-0-3-3-3-3-3-3-2-2-2-2-2-----| 
A|---------------------------------------------------------------------------| 
E|---------------------------------------------------------------------------| 

e|---------------------------------------------------------------------------| 
B|---------------------------------------------------------------------------| 
G|---------------------------------------------------------------------------| 
D|--------3-3-3-2-2-2-2-2-2-2-2-2-2-2-2--------------------------------------|   (2x) 
A|---------------------------------------------------------------------------| 
E|-3-3-3---------------------------------------------------------------------| 

Bridge: 
e|-----------------------------------------------------------------------------------------------------| 
B|-----------------------------------------------------------------------------------------------------| 
G|---------------------------------------------------------------------------------------3-3-3-3-3-3---| 
D|-0-3-3-3-3-3-3-------------2-2-2-0-0-0-------------3-3-3-3-3-3-------------2-2-2-2-2-2-2-2-2-2-2-2---| 
A|---------------------------------------3-3-3-3-3-3---------------------------------------------------| 
E|---------------3-3-3-3-3-3-------------------------------------3-3-3-3-3-3---------------------------| 


e|-----------------------------------------------------------------------------------------------------| 
B|---------------------------------------------------2-2-2-2-2-2-2-2-2-2-2-2---------------------------| 
G|-----------------------------------------------------------------------------------------------------| 
D|-0-3-3-3-3-3-3-0-----------2-2-2-0-0-0---------------------------------------------------------------| 
A|---------------------------------------3-3-3-3-3-3---------------------------------------------------| 
E|---------------3-3-3-3-3-3-------------------------------------------------3-3-3-3-3-3-0-1-1-1-1-1-1-| 

Verse: 
e|---------------------------------------------------------------------------| 
B|---------------------------------------------------------------------------| 
G|---------------------------------------------------------------------------| 
D|-2-2-2-2-2-2-2-2-2-2-2-0-3-3-3-3-3-0-2-2-2-2-2-0-3-3-3-3-3-3-2-2-2-2-2-----| 
A|---------------------------------------------------------------------------| 
E|---------------------------------------------------------------------------| 

e|---------------------------------------------------------------------------| 
B|---------------------------------------------------------------------------| 
G|---------------------------------------------------------------------------| 
D|--------3-3-3-2-2-2-2-2-2-2-2-2-2-2-2--------------------------------------|    
A|---------------------------------------------------------------------------| 
E|-3-3-3---------------------------------------------------------------------| 

Ending: 
e|--------------------------------------------------------------------------------------| 
B|--------------------------------------------------------------------------------------| 
G|--------------------------------------------------------------------------------------| 
D|-0-3-3-3-3-3-0-------------0-2-2-2-0-0-0-------------0-3-3-3-3-3-3--------------------| 
A|-------------------------------------------3-3-3-3-3----------------------------------| 
E|-----------------3-3-3-3-3------------------------------------------3-3-3-3-3-3-------| 

e|----------------------------0----------------------------------------------| 
B|---------------------1------1----------------------------------------------| 
G|---------------0-0-0---0-0--3----------------------------------------------| 
D|-0-------2-2-2--------------2----------------------------------------------| 
A|---3-3-3--------------------3----------------------------------------------| 
E|---------------------------------------------------------------------------|

roll up this ad to continue

share this page

See Also: