E-Chords
Juizo Final

Ficha Limpa (bonus Track)(Chords)

Juizo Final

Key: D
Intro: D  A  D  
        G  B  E 

Tab - Intro 

Parte 1 de 2 
   D5                 C5 D5  C5 D5 
E|------------------------------------------| 
B|------------------------------------------| 
G|------------------------------------------| 
D|-0-0-x------------------------------------| 
A|-0-0-x--0-0--0-0-x--10-12--10-12----------| 
E|-0-0-x--0-0--0-0-x--10-12--10-12----------| 

Parte 2 de 2 
   D5 
E|------------------------------------------| 
B|------------------------------------------| 
G|------------------------------------------| 
D|-0-0--------------------------------------| 
A|-0-0---------0----------------------------| 
E|-0-0---0-2-3---3-2-0----------------------|

Verse 1:

D5 Com permissão de Deus Eu tô chegando pra ficar Juízo Final, sim! Esse é o meu lugar D5 Provar o fogo que habita dentro de mim Fogo da experiência, sobrevivência No mundo onde por muito tempo Caminhei sozinho, segui o meu caminho D5 Até encontrar a paz, sim! A voz de quem sempre olhou para mim Subestimei, surpreendi A quem estava ao meu redor Deixei de boca aberta quem esperava o pior de mim D5 É assim, no mundo pessoas A qual você mais confia Cujo os seus próprios interesses Te zoam, te tiram Muitos se mostram trairá para se avantajar D5 Independente dessas coisas Estou aqui e vou continuar Meu nome é ALC Não deixe o fogo de palha meu irmão Essa é a minha área
Tab - Refrão 

Parte 1 de 4 
   A5      Bb5 F5  G5   A5      Bb5 D#5 D5  
E|------------------------------------------| 
B|------------------------------------------| 
G|-2~~2-x-x-3~~---------2~~2-x-x-3~~~-------| 
D|-2~~2-x-x-3~~3-3--5---2~~2-x-x-3~~-1--0---| 
A|-0~~0-x-x-1~~3-3--5---0~~0-x-x-1~~-1--0---| 
E|-------------3-3--5----------------1--0---| 

Parte 2 de 4 
   A5     Bb5 F5 G5 A5      Bb5   
E|------------------------------------------| 
B|------------------------------------------| 
G|-2~2-x-x-3~~------2~~2-x-x-3--------------| 
D|-2~2-x-x-3~~3-3-5-2~~2-x-x-3------8-7-----| 
A|-0~0-x-x-1~~3-3-5-0~~0-x-x-1-s6-5-----8-5-| 
E|------------3-3-5-------------------------| 

Parte 3 de 4 
   A5      Bb5 F5  G5   A5      Bb5 D#5 D5  
E|------------------------------------------| 
B|------------------------------------------| 
G|-2~~2-x-x-3~~---------2~~2-x-x-3~~~-------| 
D|-2~~2-x-x-3~~3-3--5---2~~2-x-x-3~~-1--0---| 
A|-0~~0-x-x-1~~3-3--5---0~~0-x-x-1~~-1--0---| 
E|-------------3-3--5----------------1--0---| 

Parte 4 de 4 
   A5      Bb5 F5  G5   A5     Bb5  D#5 D5 
E|------------------------------------------| 
B|------------------------------------------| 
G|-2~~2-x-x-3~~---------2~2-x-x-3~~---------| 
D|-2~~2-x-x-3~~3-3--5---2~2-x-x-3~-x-1--0---| 
A|-0~~0-x-x-1~~3-3--5---0~0-x-x-1~-x-1--0---| 
E|-------------3-3--5--------------x-1--0---| 

Tab - Solo 

E|------------------------------------------| 
B|------------------------------------------| 
G|------------------------------------------| 
D|-7~~7h8-------7~~7h8----------------------| 
A|--------8h10----------6-5-----------------| 
E|------------------------------------------|
A5 Bb5 F5 G5 Juízo Final ficha limpa na área, pode crê A5 Bb5 D#5 D5 'Pagaria' o fogo que há dentro de você
Segunda Parte D5 Eu to esperto com quem quer me derrubar Eu tenho o dedo no gatilho e vou atirar
Tab - Riff 

Parte 1 de 8 
E|------------------------------------------| 
B|------------------------------------------| 
G|------------------------------------------| 
D|-7~~7h8-------7~~7h8----------------------| 
A|--------8h10----------6-5-----------------| 
E|------------------------------------------| 

Parte 2 de 8 
E|------------------------------------------| 
B|------------------------------------------| 
G|------------------------------------------| 
D|-7-8-7-5-7---7-8-7-5-7--------------------| 
A|------------------------------------------| 
E|------------------------------------------| 

Parte 3 de 8 
E|------------------------------------------| 
B|------------------------------------------| 
G|------------------------------------------| 
D|-7-8-7-5-7---7-8-7-5-7--------------------| 
A|------------------------------------------| 
E|------------------------------------------| 

Parte 4 de 8 
E|------------------------------------------| 
B|------------------------------------------| 
G|------------------------------------------| 
D|-7-8-7-5-7---7-8-7-5-7--------------------| 
A|------------------------------------------| 
E|------------------------------------------|

Parte 5 de 8 
E|------------------------------------------| 
B|------------------------------------------| 
G|------------------------------------------| 
D|-7-8-7-5-7---7-8-7-5-7--------------------| 
A|------------------------------------------| 
E|------------------------------------------| 

Parte 6 de 8 
E|------------------------------------------| 
B|------------------------------------------| 
G|------------------------------------------| 
D|-7-8-7-5-7---7-8-7-5-7--------------------| 
A|------------------------------------------| 
E|------------------------------------------| 

Parte 7 de 8 
E|------------------------------------------| 
B|------------------------------------------| 
G|------------------------------------------| 
D|-7-8-7-5-7---7-8-7-5-7--------------------| 
A|------------------------------------------| 
E|------------------------------------------|

Parte 8 de 8 
E|------------------------------------------| 
B|------------------------------------------| 
G|------------------------------------------| 
D|-7-8--8-10--10-12--8-10--7-8--------------| 
A|------------------------------------------| 
E|------------------------------------------|
Uma rajada de palavras vai até você Vai invadir sua mente e te fazer perceber Qual é a real e o que deve ser O 'som skate' pode crê É isso mesmo rap voz ativa É o som do movimento E agora pra surpreender você Juízo Final rap peso, pode crê
A5 Bb5 F5 G5 Juízo Final ficha limpa na área, pode crê A5 Bb5 D#5 D5 'Pagaria' o fogo que há dentro de você
(Segura a 'bronca')

roll up this ad to continue

share this page

See Also: