E-Chords
Juice Newton

Loves Been A Little Bit Hard On Me(Chords)

Juice Newton

Key: A
Intro - A D E A A D E A 
 
Tabbed Intro #1 
E---|-------------------------------|--- 
B---|---14p12--10-------------------|--- 
G---|--------------13p11--9---------|--- 
D---|------------------------12/14--|--- 
A---|-------------------------------|--- 
E---|-------------------------------|--- 

Tabbed Intro #2 
E---|-----------------------------------|--- 
B---|---14p12--10-----------------------|--- 
G---|--------------13p11--9-------------|--- 
D---|------------------------11/12--10--|--- 
A---|-----------------------------------|--- 
E---|-----------------------------------|--- 
A D E A I've got nothing to be ashamed of A D E A (Loves been a little bit hard on me) A D E A If I shy away it's only because D E A (Loves been a little bit hard on me) *Chorus* A D (Loves been a little) E A Oh loves been a little A D E A (Loves been a little bit hard on me) A D (Loves been a little) E A Ya know it's just been a little D E A (Loves been a little bit hard on me) *Intro & tabbed Intro #2* I can't remember when it meant so much (Loves been a little bit hard on me) Now I shy away from the slightest touch (Loves been a little bit hard on me) *Chorus* (Loves been a little) Oh loves been a little (Loves been a little bit hard on me) (Loves been a little) Just a little, little (Loves been a little bit hard on me) *Bridge* D Dbm well, come out, come out B A from that hopeless romance in side D Dbm child, it's all right, it's all right B E A shade so dark, so close to the li-ght *Guitar Solo* *Bridge* well come out, well come out from that hopeless romance in side child, it's all right, it's all right B (Stop) E A shade so dark, so close to the li-ght I'll be back when I calm my fears (Loves been a little bit hard on me) Then I'll see you 'round in a thousand years (Loves been a little bit hard on me) *Chorus* (Loves been a little) Oh loves been a little (Loves been a little bit hard on me) Oh, love ya know it's just been a little (Loves been a little bit hard) It's hard on me *Intro & tabbed intro #1 & 2*

roll up this ad to continue

share this page

See Also: