E-Chords
Jovenes pordioseros

Nunca Me Enseñaste(Chords)

Jovenes pordioseros

Key: G
G               D/F# 
Si nos volvemos a ver 

Em                 C 
Ni se te ocurra acercarte 

                  G 
Ni abrazarme ni mirarme 

          D 
Podrías hacerme mal. 

Te pido por favor 
Que me dejes si me ves 
Y que te vallas como algo 
Que nunca pudo ser. 


Am               Bm 
Mi corazón fue tu corazón 

Am          Bm 
Mi cabeza te olvidó 

Am           G 
Mi corazón no se 

          D 
Si está seguro. 


C             D 
No me puedo dormir 

      G          C 
Desde que no estás acá 

             D            G      D 
Nunca me enseñaste a estar solo. 


Para mi fuiste el diablo no! 
No pienso darte el alma 
El tiempo que termina 
Me puede curar. 

Tengo que dejar 
De escribir sobre nosotros 
Canciones que cantan todos 
Y nunca vas a escuchar. 

Mi corazón fue tu corazón 
Mi cabeza te olvidó 
Mi corazón no se 
Si está seguro. 

No me puedo dormir 
Desde que no estás acá 
Nunca me enseñaste a estar solo. 


Solo:   Em - Bm - F#m - Bm 
       (Mim - SOl) - La - La 

Mi corazón fue tu corazón 
Mi cabeza te olvidó 
Mi corazón no se 
Si está seguro. 

No me puedo dormir 
desde que no estás acá 
nunca me enseñaste a estar solo. 

No me puedo dormir 
desde que no estás acá 
nunca me enseñaste a estar solo. 

Outro 

SOlo 

  Em           Bm               F#m                      Bm 
1|-333p2---------------------------------------------------------------- 
2|-------5-----2/3-2---------------------------------------------------- 
3|---------4---------2-------------------------------------------------- 
4|---------------------4------------------------------------------------ 
5|-------------------------4/5-4-2-4--------2--------/7-5-4-2-0-2/4-2~~- 
6|-----------------------------------2--4-5---5--4/5-------------------- 


 (Em         SOl)         A 
1|-222-0---0--7/5-5-3-5----7/5-5-3-5--999/7-5-/7-5~~~- 
2|-------3-------------------------------------------- 
3|---------------------------------------------------- 
4|---------------------------------------------------- 
5|---------------------------------------------------- 
6|---------------------------------------------------- 

Outro 
1|------------------------------------------------ 
2|------------------------------------------------ 
3|---0-----0-----0------0-----0-----0------------- 
4|-5---5-4---4-2---2--0---0----------------------- 
5|--------------------------3---3-2---3-2-5/7-5-3- 
6|------------------------------------------------ 

1|-----------------------------------------------3- 
2|-----------------------------------------------3- 
3|---0-----0-----0------0-----0-----0------------0- 
4|-5---5-4---4-2---2--0---0----------------------0- 
5|--------------------------3---3-2----3-2-3-5---2- 
6|---------------------------------------------2-3-

roll up this ad to continue

share this page

See Also: