E-Chords
Jovelina

Não É Só Existir(Chords)

Jovelina

roll up this ad to continue

Key: Db
Intro F#  Bbm  G#  Bbm  G#  C# 
        F#  Bbm  G#  Bbm  G# 

E|-----------------------------------------| 
B|-----------------------------------------| 
G|-----------------------------------------| 
D|-----------------------------------------| 
A|-8h9-8-\1~1-1-4-3----4-3-----------------| 
E|-----------------------------------------|
E|-----------------------------------------| 
B|-----------------------------------------| 
G|-----------------------------------------| 
D|-----------------------------------------| 
A|-8h9-8---------4-3-4p3-------------------| 
E|-------4h6~~~----------------------------|
Bbm Fm Me ponho a pensar F# Ao ver os calos em suas mãos Bbm Fm Cada ruga conta uma história F# De quem já sorriu D#m F# C# Ao olhar seu legado penso no tempo que perdi D#m Longe está C# Fm Bbm G# C# Quem o encontra?
E|-----------------------------------------| 
B|-----------------------------------------| 
G|-----------------------------------------| 
D|-----------------------------------------| 
A|-4-3-------1---4-------------------------| 
E|-----1-1-4---4---------------------------|
C# Bbm G# O que faço dos meus dias? F# Com as dádivas que Deus insiste em dar? C# Bbm G# O que a vida dirá de mim? F# Preciso aprender a viver
E|-----------------------------------------| 
B|-----------------------------------------| 
G|-----------------------------------------| 
D|-----------------------------------------| 
A|-8h9-8---------4-3-4p3-------------------| 
E|-------4h6~~~----------------------------|
Bbm Fm F# Sua Pele vem mostrar a medida do tempo que passou Bbm Fm F# Com os olhos percebi as rugas em seu rosto Bbm D#m São tantas as marcas que a vida deixou F# C# Ao olhar seu legado penso no tempo que perdi D#m Longe está C# Fm Bbm G# C# Quem o encontrá?
E|-----------------------------------------| 
B|-----------------------------------------| 
G|-----------------------------------------| 
D|-----------------------------------------| 
A|-4-3-------1---4-------------------------| 
E|-----1-1-4---4---------------------------|
C# Bbm G# O que faço dos meus dias? F# Com as dádivas que Deus insiste em dar? C# Bbm G# O que a vida dirá de mim? F# Preciso aprender a viver Bbm Fm F# O que a vida dirá de mim? D#m Preciso aprender a viver C# E não só existir D#m E não só existir Bbm F# Preciso aprender a viver C# E não só existir D#m E não só existir Bbm D#m Preciso aprender a viver
E|-----------------------------------------| 
B|-----------------------------------------| 
G|-----------------------------------------| 
D|-----------------------------------------| 
A|-4-3-------1---4-------------------------| 
E|-----1-1-4---4---------------------------|
E|-----------------------------------------| 
B|-----------------------------------------| 
G|-----------------------------------------| 
D|-----------------------------------------| 
A|-4-3-------1---4-------------------------| 
E|-----1-1-4---4---------------------------|
E|-----------------------------------------| 
B|-----------------------------------------| 
G|-----------------------------------------| 
D|-----------------------------------------| 
A|-4-3-------1-----------------------------| 
E|-----1-1-4---4~~-------------------------|
share this page

See Also: