E-Chords
Josh Farro

Lose You(Chords)

Josh Farro

roll up this ad to continue

Key: D
D 
A year of silence 
A 
Steady climbing 
Bm 
Breaking at the 
   A 
Battle line 

D 
I thought subverted You 
       A 
Was enough to keep you 
     Bm 
From wandering off 
         A 
Into the sea 

Em D  A 
uuuuhhh 
A                     Em  D 
I don't wanna lose you 
A                           Em    D 
Cause it's a long road without you 
A 
To make it alone 
G              Em 
 I don't wanna lose you
 
E|--11--------11----------10----------------|     
B|----11---------11----------11-13----------| 
G|-------12---------10-------------12-------|   
D|------------------------------------------|               
A|------------------------------------------|    
E|------------------------------------------| 

E|--13-10-----------------------------------| 
B|--------11--------------------------------| 
G|-----------12-10--------------------------|   
D|------------------------------------------|               
A|------------------------------------------|    
E|------------------------------------------| 
D A silent mystery A Erects a history Bm Marching forward A And won't look back D I promise, i promise A You're swinging but missing Bm The mark A The mark Em D A uuuuhhh A Em D I don't wanna lose you A Em D Cause it's a long road without you A To make it alone G Em I don't wanna lose you ( G A Bm ) G A Have I forgotten Bm All We are A All We are Em D A Uuuh I don't wanna lose You Em D A Uuhh A Oooh Em D A uuuuhhh A Em D I don't wanna lose you A Em D Cause it's a long road without you A To make it alone G Em ( Bm ) I don't wanna lose you Em D A uuuuhhh A Em D I don't wanna lose you A Em D Cause it's a long road without you A To make it alone G Em D I don't wanna lose you
share this page

See Also: