E-Chords
Joseph Arthur

A Smile That Explodes(Chords)

Joseph Arthur

roll up this ad to continue

Key: C#
Capo na 1ª casa 
 
Versos: 
       C7M/E           C7M/D             C               C 
E|----------0----|----------0----|----------0----|----------0----| 
B|-----1-------1-|-----1-------1-|-----1-------1-|-----1-------1-| 
G|---4----4------|---4----4------|---0----0------|---0----0------| 
D|-2----2----2---|-0----0----0---|---------------|---------------| 
A|---------------|---------------|-3----3----3---|-3----3----3---| 
 
Refrão: 
        F7M             F7M              C               C 
E|----------0----|----------0----|----------0----|----------0----| 
B|-----1-------1-|-----1-------1-|-----1-------1-|-----1-------1-| 
G|---2----2------|---2----2------|---0----0------|---0----0------| 
D|-3----3----3---|-3----3----3---|---------------|---------------| 
A|---------------|---------------|-3----3----3---|-3----3----3---| 
        Dm              Am               C               Dm 
E|----------1----|----------0----|----------0----|----------1----| 
B|-----3-------3-|-----1-------1-|-----1-------1-|-----3-------3-| 
G|---2----2------|---2----2------|---0----0------|---2----2------| 
D|-0----0----0---|---------------|---------------|-0----0----0---| 
A|---------------|-0----0----0---|-3----3----3---|---------------| 
 
?From the thought(...)? e ?Letter I won?t send(...)? 
     *C7M/E 
E|---------------| 
B|-----1----1----| 
G|---4----4----4-| 
D|-2----2----2---| 
A|---------------| 
------//------ Intro ? (C7M/E C7M/D C C ) 2X C7M/E C7M/D C Too young to fall for a C7M/E C7M/D C Light I think I see, can't say for sure C7M/E C7M/D C The plants have died, my hair has grown *C7M/E C7M/D C From the thought of you coming home Chorus: F7M C ?Cause it ain't easier Dm Am C Dm Waking up at dawn to find I lost my crown Dm Am C Dm If I found you there with flowers in your hair Dm Am C Dm I'd hold you in my arms until we came back down Dm Am C Dm A smile that explodes I could never understand
        Dm               Dm             Dm 
E|----------1----|----------1----|----------1----| 
B|-----3-------3-|-----3-------3-|-----3-------1-| 
G|---2----2------|---2----2------|---2----2------| 
D|-0----0----0---|-0----0----0---|-0----0----0---| 
A|---------------|---------------|---------------| 
C7M/E C7M/D C My room, too small C7M/E C7M/D C To get by without the help of alcohol C7M/E C7M/D C Pin my arm to the wall C7M/E C7M/D C Now I'm too gone to fight, not afraid to fall Chorus - repeat
E|----------1----|----------1----|----------1----| 
B|-----3-------1-|-----3-------1-|-----3-------1-| 
G|---2----2------|---2----2------|---2----2------| 
D|-0----0----0---|-0----0----0---|-0----0----0---| 
A|---------------|---------------|---------------| 
C7M/E C7M/D C I write one more *C7M/E C7M/D C Letter I won't send except for across the floor _______________________________________________________ Contribuição: Camilla Bazzarella([email protected])
share this page

See Also: