E-Chords
Jon Stevens

Touch(Chords)

Jon Stevens

Key: G

Chords were transcribed from the Morning Show on Channel 7 (Aust.) 4th Jan 2015 

Have fun. Great song! 


Intro: 

G   C   Em   /  (x8) 


PIANO RIFF:  (x6) 
          G                               C 
          1       2       3       4       1       2       3       4 
E|----|-------------------------------------------------------------------| 
B|----|*-15----15------------12-------------------------------------------| 
G|-12-|------12------14-----------------------------------------------12--| 
D|----|-------------------------------------------------------------------| 
A|----|*------------------------------------------------------------------| 
E|----|-------------------------------------------------------------------| 

          Em 
          1       2       3       4       1       2       3       4 
     E|-------------------------------------------------------------------| 
     B|---15----15-------------------------------------------------------*| 
     G|-------12------------------------------------------------------12--| 
     D|---------------14--------------------------------------------------| 
     A|------------------------------------------------------------------*| 
     E|-------------------------------------------------------------------| 
G C Em Another day is going out, yeah G C Em A sea of faces crying out G C Em With all we have today, you think we'd stop and take a look now, yeah G C Em And all I want to say is maybe that we should reach out, everybody Chorus: G C Em Reach out and, reach out and, reach out and touch somebody Reach out and, reach out and, reach out and touch somebody G C Em In this old world we all can see, yeah G C Em So let's take away the silent fears, yeah G C Em With all of our mistakes, you think we'd stop and take a look now, yeah G C Em All I want to say is maybe that we should reach out, everybody Chorus (x2) Solo:
  D 
  1       2       3       4       1       2       3       4 
E|15p-14----------------------------------------------------------| 
B|--------15------------------------------------------------------| 
G|------------14--let-ring----------------------------------------| 
D|----------------------------------------------------------------| 
A|----------------------------------------------------------------| 
E|----------------------------------------------------------------| 

  Am 
  1       2       3       4       1       2       3       4 
E|----------------------------------------------------------------| 
B|17--------------15----------13--------------------------12h-13--| 
G|----------------------------------------------------------------| 
D|----------------------------------------------------------------| 
A|----------------------------------------------------------------| 
E|----------------------------------------------------------------| 

  C 
  1       2       3       4       1       2       3       4 
E|----15----------------------------------------------------------| 
B|------------13----------------------13------13------13------13h-| 
G|----------------------------------------------------------------| 
D|----------------------------------------------------------------| 
A|----------------------------------------------------------------| 
E|----------------------------------------------------------------| 

  G 
  1       2       3       4       1       2       3       4 
E|----------------------------------------------------------------| 
B|15----------13----------12--------------------------------------| 
G|----12------------------------------14------12------------------| 
D|------------------------------------/\--------------------------| 
A|--------------------------------bend-up-to----------------------| 
E|-------------------------------16-&-release---------------------| 

  D 
  1       2       3       4       1       2       3       4 
E|15p-14----------------------------------------------------------| 
B|--------15------------------------------------------------------| 
G|------------14--let-ring------------14----14----14--------------| 
D|----------------------------------------------------------------| 
A|----------------------------------------------------------------| 
E|----------------------------------------------------------------| 

  Am 
  1       2       3       4       1       2       3       4 
E|15--12------12----------------------15--------------------------| 
B|--------15------------------15--------------17------------------| 
G|----------------------------/\----------------------------------| 
D|-------------------------bend-up--------------------------------| 
A|--------------------------to-17---------------------------------| 
E|----------------------------------------------------------------| 

        C 
We will find it, we will find it 


REPEAT PIANO RIFF  (x8) 
and Chorus  (x4) 


FINAL RIFF:  (x4) 
         G                           Cadd9 
E|-------15-15-15-15-etc-------------15-15-15-15-etc--| 
B|--13h15-----------------------13h15-----------------| 
G|----------------------------------------------------| 
D|----------------------------------------------------| 
A|----------------------------------------------------| 
E|----------------------------------------------------| 
(End on a G chord)

roll up this ad to continue

share this page

See Also: