E-Chords
Johnny Russell

Heres To The Horses(Chords)

Johnny Russell

Key: Eb
Eb Ab Here's to the horses that pull the Budweiser Eb Bb Here's to the ribbon, 'round the blue ribbon can, Eb Ab Here's to the ladies that pour golden rivers Eb Bb Eb That fill up the glass, of the beer drinkin' man!
    Bb Cm Dm 
E ------------- 
B ------------- 
G ------------- 
D ------------- 
A ------------- 
E --6--8--10--- 
Verse: Eb Ab Down by the river at O'Grady's Tavern, Eb Bb That's where we gather, most every night. Eb Ab Laughing and joking, talking and toasting, Eb Bb Eb Tall story telling, till almost daylight. BREAK: Cm Eb We'll drink a toast with each round that you buy Ab Bb Your wife or your girlfriend, we'll toast anything! Cm Eb Winners or losers, you'll be the choosers, Ab Eb Bb Eb And long about morning you might hear us sing, Ab Bb Sing, sing
    Bb Cm Dm 
E ------------- 
B ------------- 
G ------------- 
D ------------- 
A ------------- 
E --6--8--10--- 
Eb Ab Here's to the horses that pull the Budweiser Eb Bb Here's to the ribbon, 'round the blue ribbon can, Eb Ab Here's to the ladies that pour golden rivers Eb Bb Eb That fill up the glass, of the beer drinkin' man!
    Bb Cm Dm 
E ------------- 
B ------------- 
G ------------- 
D ------------- 
A ------------- 
E --6--8--10--- 
BREAK: Cm Eb Here's to the old flames that we've left behind, Ab Bb We wish them the best, they can do without us! Cm Eb Here's to the wife, of old Billy Johnson, Ab Eb Bb Eb The day that she left him we toasted the bus, Ab Bb Sing sing
    Bb Cm Dm 
E ------------- 
B ------------- 
G ------------- 
D ------------- 
A ------------- 
E --6--8--10--- 
Eb Ab Here's to the horses that pull the Budweiser Eb Bb Here's to the ribbon, 'round the blue ribbon can, Eb Ab Here's to the ladies that pour golden rivers Eb Bb Eb That fill up the glass, of the beer drinkin' man!
    B C#m D#m 
E ------------- 
B ------------- 
G ------------- 
D ------------- 
A ------------- 
E --7--9--11--- 
**** KEY CHANGE **** Verse: E A Here's to the jukebox that stands in the corner, E B Here's to the records that go round and round! E A Here's to the barstools, the bottles and glasses, E B E Here's to Milwaukee, you won't let us down!
    C  Dm  Em 
E ------------- 
B ------------- 
G ------------- 
D ------------- 
A ------------- 
E --8--10--12--- 
**** KEY CHANGE ****
F Bb Here's to the horses that pull the Budweiser F C Here's to the ribbon, 'round the blue ribbon can, F Bb Here's to the ladies that pour golden rivers F C F That fill up the glass, of the beer drinkin' man!
    C  Dm  Em 
E ------------- 
B ------------- 
G ------------- 
D ------------- 
A ------------- 
E --8--10--12--- 
F Bb Here's to the horses that pull the Budweiser F C Here's to the ribbon, 'round the blue ribbon can, F Bb Here's to the ladies that pour golden rivers F C F That fill up the glass, of the beer drinkin' man!

roll up this ad to continue

share this page

See Also: