E-Chords
Johnny Hooker

Amor Marginal(Chords)

Johnny Hooker

Key: Am
Intro: Am  G  F  E7 
E|--------------------------------------------------------| 
B|--------------------------------------------------------| 
G|---------------------5--------------------4-----------4-| 
D|-------------5h7-5-----x-5h7-5----------5---5-------5---| 
A|----------7--------7-----------7\-----5-------5---5-----| 
E|-0-3-3/5----------------------------3-----------3-------| 

E|-x-x-------------------------------------------0~| 
B|-x-x---------------------------------------------| 
G|-4-3-------2-------------------------1-----1/4---| 
D|-5-4-----3---3-------3-------------0---0---0-0---| 
A|-5-4---3-------3---3-------3-5---2-------0-2/5---| 
E|-3-2-1-----------1-----3h5-----0-----------------|
Am Minha flor, não me machuques G F Minha dor, não me abuses assim Não tire mágoas E7 Tire mágoas de mim Am Meu amor, não me invadas G Com o teu olhar F Não me deixes aqui a gritar E7 No meio do caminho, sozinho Am G Meu amor, não mais deixes escapar F Nenhum desejo no teu olhar E7 De pecados proibidos, esquecidos Am G Respirando mágoas de uma outra dor F Do nosso caso imoral E7 Desse amor, desse amor marginal Eu vou Am Minha flor, não me machuques G F Minha dor, não me abuses assim Não tire mágoas E7 Tire mágoas de mim Am Meu amor, não me invadas G Com o teu olhar F Não me deixes aqui a gritar E7 No meio do caminho, sozinho Am G Meu amor, não mais deixes escapar F Nenhum desejo no teu olhar E7 De pecados proibidos, esquecidos Am G Respirando mágoas de uma outra dor F Do nosso caso imoral E7 Desse amor, desse amor marginal Eu vou Am G Pra calar, o sexo mais banal F Pra virar poesia Desse amor E7 Desse amor marginal Eu vou Am Minha flor, G Não mais deixes o azul dos dias nos calar F Pois nesse mundo algo há E7 De valer a pena, pequena Am G Meu amor, me faça acreditar Que tudo é possível, F Pois eu temo que não amanheça E7 Se você se for Am G Respirando mágoas de uma outra dor F Do nosso caso imoral E7 Desse amor, desse amor marginal Eu vou Am G Pra calar, o sexo mais banal F Pra virar poesia Desse amor E7 Desse amor marginal Eu vou

roll up this ad to continue

share this page

See Also: