E-Chords
John Holt

Tribal War(Chords)

John Holt

roll up this ad to continue

Key: F#m
                                          John Holt - Tribal War 

Chords:  

          A        F#m          E 
   e  |-12-------|  |-9--------|  |-7--------| 
   b  |-12---14--|  |-9--10----|  |-7---9----| 
   g  |-12---14--|  |-9-----11-|  |-7---9----| 
   d  |-12---14--|  |-9-----11-|  |-7---9----| 
   a  |-12-------|  |-9--------|  |-7--------| 
   E x|----------| x|----------| x|----------| 
Intro(x2): A F#m A F#m A F#m Tribal War we don't want no more at all E F#m Tribal War I know that we have the pain A I give Jah praises in the morning F#m When I hear the people say E They start sittin' up and lickin' a cup One by One they take a lil sup F#m Sayin' that the war is over over E We now see our selves in Unity Celebrating with better callin' F#m E Now that the war is over over A F#m Tribal War we don't want no more at all E F#m Tribal War I know that we have the pain
(Organ Solo on Guitar) 
          A                                                        F#m 
e|--------------------------------------|-----------------------------------| 
b|------10-----12--14--12--10--12--14---|-12--14--12--10--------------------| 
g|-9h11---------------------------------|-----------------11--9--11---------| 
d|--------------------------------------|-----------------------------------| 
a|--------------------------------------|-----------------------------------| 
E|--------------------------------------|-----------------------------------| 
                                     E                                  F#m 
e|--------------------------------------|-----------------------------------| 
b|--------10--------14--12--10----------|---------------------10------------| 
g|-9--11------11----------------11--9---|-6h7-9-9-9-7-9----11----11-9-11----| 
d|--------------------------------------|-----------------------------------| 
a|--------------------------------------|-----------------------------------| 
E|--------------------------------------|-----------------------------------| 

e|--------------------------------------| 
b|-14--12--10-----10--12--14------------| 
g|-------------11-----------------------| 
d|--------------------------------------| 
a|--------------------------------------| 
E|--------------------------------------| 
A F#m Tribal War we don't want no more at all E F#m Tribal War I know that we have the pain E They start sittin' up and lickin' a cup One by One they take a lil sup F#m Sayin' that the war is over over E We now see our selves in Unity Celebrating with better callin' F#m Now that the war is over over A F#m Tribal War we don't want no more at all E F#m Tribal War I know that we have the pain
share this page

See Also: