E-Chords
Joe Cocker

Never Tear Us Apart(Chords)

Joe Cocker

Key: Am
Am		     F 
Don't ask me what you know is true 
		Dm	         F 
Don't have to tell you, I love your precious heart 

C  F      C             F		C 
I, I was standing you were there 
F                C           F                   G 
Two worlds collided and they could never tear us apart... 

(riff) 
E|--------------------------------------- 
B|--------------------------------------- 
G|--------------------------------------- 
D|--------------------------------------- 
A|----0---3----5---7-7-7-7-7-7-7-7------- 
E|-----------------5-5-5-5-5-5-5-5-------
Am We could live F For a thousand years Dm But if I hurt you F I'd make wine from your tears Am I told you F That we could fly Dm 'Cause we all have wings F But some of us don't know why C F C F C I, I was standing you were there F C F G Two worlds collided and they could never tear us apart...
(riff) 
E|--------------------------------------- 
B|--------------------------------------- 
G|--------------------------------------- 
D|--------------------------------------- 
A|----0---3----5---7-7-7-7-7-7-7-7------- 
E|-----------------5-5-5-5-5-5-5-5------- 

( Am F Dm F )  (2x) 

(solo) 
E|-11/12b~~~~~~12-11-10-7/8-----------12/15-12p10-12-12b--10-8--8/10-10/12-12/13-13/15- 
B|---------------------------10p8-10--------------------------------------------------- 
G|------------------------------------------------------------------------------------- 
D|------------------------------------------------------------------------------------- 
A|------------------------------------------------------------------------------------- 
E|-------------------------------------------------------------------------------------
Am F Don't ask me what you know is true Dm F Don't have to tell you, I love your precious heart C F C F C I, I was standing you were there F C F G Two worlds collided and they could never tear us apart...

roll up this ad to continue

share this page

See Also: