E-Chords
Joca Martins

Se Houver Cavalo Crioulo(Chords)

Joca Martins

roll up this ad to continue

Key: C
Intro: 
E|------------------------------|------------------------------|----------------------1---0---| 
B|----------------------3---1---|----------------------1---0---|-----0-h1-p0------0-----------| 
G|-----0-h2-p0------0-----------|-----0-h2-p0------0-----------|--------------3---------------| 
D|--------------4---------------|--------------4---------------|------------------------------| 
A|------------------------------|------------------------------|------------------------------| 
E|------------------------------|------------------------------|------------------------------| 

E|------------------------------|------------------------------|-----------------5---3---| 
B|----------------------3---1---|----------------------5---3---|-----1---0---1-----------| 
G|-----0-h2-p0------0-----------|-----0-h2-p0------0-----------|-------------------------| 
D|--------------4---------------|--------------4---------------|-------------------------| 
A|------------------------------|------------------------------|-------------------------| 
E|------------------------------|------------------------------|-------------------------| 

E|-----1---0---1---2---3---|-----1---0---1-p0----------|--------| 
B|-------------------------|-------------------3---0---|-1------| 
G|-------------------------|---------------------------|--------| 
D|-------------------------|---------------------------|--------| 
A|-------------------------|---------------------------|--------| 
E|-------------------------|---------------------------|--------|
C - G7 - C - C7 - F - G7 - C C Pode ser pelo Rio Grande G7 São Paulo ou no Paraná Lá por Santa Catarina F No Uruguai, Chile, Argentina G7 C Ou em qualquer outro lugar Não me sinto forasteiro G7 Não conheço desconsolo F Pois assim é minha essência G7 Qualquer lugar é querência C Se houver cavalo crioulo
Ponte para o refrão: 
   C			     G7				C 
E|-----3---0---------------|--------------------------|--------| 
B|-------------1-----------|----------------------3---|-1------| 
G|-----------------0---2---|-4------------2-h4--------|--------| 
D|-------------------------|-----3-h4-p5--------------|--------| 
A|-------------------------|--------------------------|--------| 
E|-------------------------|--------------------------|--------|
G7 C Se houver cavalo crioulo G7 C Na terra mais diferente C7 F Se houver cavalo crioulo G7 (Melodia 1) É feito a casa da gente
Melodia 1: 
   C			     G7 
E|-------------------------|--------| 
B|-------------------------|--------| 
G|-------------------------|--------| 
D|-----2-------0-----------|--------| 
A|-3-------2-----------3---|-2------| 
E|-----------------5-------|-3------|
Repetir refrão (sem a Melodia 1).
Solo: 
E|---------------|-------------------------|-------------------------|-------------------------| 
B|-----------5---|-----3-------1-----------|---------------------6---|-----5-------3-----------| 
G|---------------|---------------------2---|-----4-------0-----------|---------------------4---| 
D|-------5-------|-3-------2---------------|-----------------7-------|-5-------3---------------| 
A|---------------|-----------------3-------|-5-------2---------------|-----------------5-------| 
E|---------------|-------------------------|-------------------------|-------------------------| 

E|-------------------------|-------------------------|-------------------------|-1/3--1---0---1p-0----------| 
B|---------------------5---|-----3-------1-------8---|-----6-------------------|--------------------3---0---| 
G|-----5-------------------|-------------------------|-------------2-------5---|----------------------------| 
D|-------------2---5-------|-3-------2-------8-------|-7-------3-------4-------|----------------------------| 
A|-7-------3---------------|-------------------------|-------------------------|----------------------------| 
E|-------------------------|-------------------------|-------------------------|----------------------------| 

E|--------| 
B|-1------| 
G|--------| 
D|--------| 
A|--------| 
E|--------|
C Pode ser nalguma rua G7 Na praia ou na capital Num shopping, na faculdade F No coração da cidade G7 C Ou numa praça central Mesmo que seja no asfalto G7 Entre concreto e tijolo F Muito longe dos potreiros G7 Qualquer lugar é campeiro C Se houver cavalo crioulo (Ponte para o refrão) (Refrão) C - G7 - C - C7 - F - G7 - C C Pode ser numa morada G7 Num posto e até num bolicho Numa simples invernada F Num rancho à beira da estrada G7 C Ou numa estância a capricho Tenha zorzal, quero-quero G7 Tajã, hornero ou chingolo F O canto da natureza G7 Por certo tem mais beleza C Se houver cavalo crioulo (Ponte para o refrão) (Refrão apenas uma vez)
G7 C Se houver cavalo crioulo G7 C Na terra mais diferente C7 F F#dim7 Se houver cavalo crioulo (Melodia 2) É feito a casa da gente
Melodia 2: 
   G7		    C 
E|----------------|--------| 
B|----------------|--------| 
G|----------------|--------| 
D|----------------|--------| 
A|------0----2----|-3------| 
E|-3--------------|--------|
C
share this page

See Also: