E-Chords
João Manô

Salmos 139(Chords)

João Manô

Key: C
Intro 

E|-5--8p5----10------------------------------------------| 
B|--------------------5--------------5--5--6--8--8--6----| 
G|-----------------------7--5--------5--5-----------7----| 
D|-----------------------------7--5--5--5-----------5----| 
A|-----------------0-----------------------------5--5----| 
E|-------------------------------------------------------|
E|-5--8--10--8--10---------------------------------------| 
B|--------------------5--------------5--5--6--8--8--6----| 
G|-----------------------7--5--------5--5-----------7--4-| 
D|-----------------------------7--5--5--5-----------5--3-| 
A|-----------------0-----------------------------5--5--5-| 
E|-----------------------------------------------------3-|
C C7 Para onde me ausentarei F Fm Do teu espírito C C7 Ou da Tua face enfim F Fm Senhor bendito Am G C Se subir ao céus lá tu estás Am G Se fizer da minha cama o mais profundo F Abismo Dm Lá também estas G Lá também estas F Am Me puseste em tuas mãos, tal ciência D/F# É para mim Dm C Maravilhosa, maravilhosa F Am E não há nada aqui que me arranque das D/F# Tuas mãos Dm C Maravilhosas, maravilhosas F Fm C C7M Uuuuuuh uuuuuuh uuuh uuuh F Fm C C7M Uuuuuuh uuuuuuh uuuh uuuh C C7 Adiante ou atrás F Fm Tu me cercando estas C C7 Conhece cada passo F Fm Onde firmo os meus pés Am G Se distante me detenho nos confins dos C Mares Am G F Se me perco na mais densa noite Dm Lá também estas G Lá também estas F Am Me puseste em tuas mãos, tal ciência D/F# É para mim Dm C Maravilhosa, maravilhosa F Am E não há nada aqui que me arranque das D/F# Tuas mãos Dm C Maravilhosas, maravilhosas F Am Me puseste em tuas mãos, tal ciência D/F# É para mim Dm C Maravilhosa, maravilhosa F Am E não há nada aqui que me arranque das D/F# Tuas mãos Dm C Maravilhosas, maravilhosas

roll up this ad to continue

share this page

See Also: