E-Chords
Jill Scott

Jahraymecofasola(Chords)

Jill Scott

roll up this ad to continue

Key: D
Capo on 1st fret
Tuning: Drop D   



Intro 

   Ab    Ab/Gb  Ab/F   Dbm/E 
e|---------------------------------------------------------------------------| 
B|--3------3-----3------1-0--------------------------------------------------| 
G|----0-2----0-2---0-2------2-0----------------------------------------------| 
D|---------------------------------------------------------------------------| 
A|---------------------------------------------------------------------------| 
D|--5------3-----2------1----------------------------------------------------| 

   Ab    Ab/Gb  Ab/F   Dbm/E 
e|---------------------------------------------------------------------------| 
B|--3-----0-----0-------1-0--------------------------------------------------| 
G|----0-2---0-2-----0-2-----2-0----------------------------------------------| 
D|----------------0----------------------------------------------------------| 
A|---------------------------------------------------------------------------| 
D|--5-----3-----2-------1----------------------------------------------------| 


Verse 

   Ab    Ab/Gb  Ab/F   Dbm/E 
e|---------------------------------------------------------------------------| 
B|--3-----0-----0-------1-0--------------------------------------------------| 
G|----0-2---0-2-----0-2-----2-0----------------------------------------------| 
D|----------------0----------------------------------------------------------| 
A|---------------------------------------------------------------------------| 
D|--5-----3-----2-------1----------------------------------------------------| 


Chorus 

   Ab    Ab/Gb  Ab/F   Dbm/E 
e|---------------------------------------------------------------------------| 
B|--3-----0-----0-------1-0--------------------------------------------------| 
G|----0-2---0-2-----0-2-----2-0----------------------------------------------| 
D|----------------0----------------------------------------------------------| 
A|---------------------------------------------------------------------------| 
D|--5-----3-----2-------1----------------------------------------------------| 
Verse Ab Ab/Gb Ab/F Dbm/E Ab Ab/Gb Ab/F Dbm/E I would climb inside a red balloon floating towards the noon...........for you Ab Ab/Gb Ab/F Dbm/E Ab Ab/Gb Ab/F Dbm/E I would fly across the midnight sky, the stars and the moon...........for you too Ab Ab/Gb Ab/F Dbm/E Ab Ab/Gb Ab/F Dbm/E And on that flight I devise a, a new way to say how much I love you Ab Ab/Gb Ab/F Dbm/E Ab Ab/Gb Ab/F Dbm/E Tippy tah, sah dah tay, I'm still working on it baby please forgive me Ab Ab/Gb Ab/F Dbm/E I think I?d try......how bout...... jahraymecofasola
Ab Ab/Gb Ab/F Dbm/E .............How bout jahraymecofasola Ab Ab/Gb Ab/F Dbm/E .............How bout jahraymecofasola Ab Ab/Gb Ab/F Dbm/E ...........Well?
Verse Ab Ab/Gb Ab/F Dbm/E Ab Ab/Gb Ab/F Dbm/E On my way..... I realized I didn?t have a gift for you Ab Ab/Gb Ab/F Dbm/E Ab Ab/Gb Ab/F Dbm/E So I racked my mind on what it is now that I am supposed to do Ab Ab/Gb Ab/F Dbm/E Ab Ab/Gb Ab/F Dbm/E Then it hit me I guessed the love in the air hugged rain before it falls down Ab Ab/Gb Ab/F Dbm/E Ab Ab/Gb Ab/F Dbm/E Put infinity into a melody..... and see how it sounds
Ab Ab/Gb Ab/F Dbm/E Ab Ab/Gb Ab/F Dbm/E Ab Ab/Gb Sounds like...............jahraymecofasola.......Sounds like jahraymecofasola Ab/F Dbm/E Ab Ab/Gb Ab/F Dbm/E Sounds like jahraymecofasola............oooh
Verse Ab Ab/Gb Ab/F Dbm/E Ab Ab/Gb Ab/F Dbm/E Almost there now...uh.......just a million miles to go Ab Ab/Gb Ab/F Dbm/E Ab Ab/Gb Ab/F Dbm/E And still I can contain ....how you make me glow, oh you make me glow Ab Ab/Gb Ab/F Dbm/E Ab Ab/Gb Ab/F Dbm/E People look up at me and wooouuuuh they think that I?m a star Ab Ab/Gb Ab/F Dbm/E Ab Ab/Gb But it?s all because the love you give to me....... it made me who I are
Ab/F Dbm/E Ab Ab/Gb Ab/F Dbm/E Ab Ab/Gb And it sounds like, sounds like?..................jahraymecofasola Ab/F Dbm/E Ab Ab/Gb Sounds like jahraymecofasola Ab/F Dbm/E Ab Ab/Gb Ab/F Dbm/E Sounds like jahraymecofasola
Instrumental Ab Ab/Gb Ab/F Dbm/E Ab Ab/Gb Ab/F Dbm/E
share this page

See Also: