E-Chords
Jefferson Moraes

Estrelinha(Chords)

Jefferson Moraes

Key: F#
Intro Em7  G5  Bm7(11)  A4 

Tab - Solo Intro 

Parte 1 de 2 
E|-----0-0h2----------------------------------------| 
B|-2h3-------------3-3-5-7\-------3-----------------| 
G|---------------0--------------0-------------------| 
D|-------------2--------------0---------------------| 
A|--------------------------------------------------| 
E|-----------0--------------3-----------------------|
Parte 2 de 2 
E|--------------------------------------------------| 
B|-3-3/5-5/7-7-7~-7-7/8-8p7--3/5--------------------| 
G|--------------------------------------------------| 
D|--------------------------------------------------| 
A|--------------------------------------------------| 
E|-----------7--------------------------------------|

Verse 1:

Em7 Enxugue esse rosto G5 E venha aqui fora como de costume D5 Vamos conversar D9 Pra te alegrar tem até vagalume D5 Em7 Tem dias que vai piorar G5 Saudade vai apertar Bm7(11) Até que 'cê' tá indo bem A9 Faz falta aqui pra mim também

Pre-Chorus

Em7 Lembra de quando G5 Eu ficava acordado até tarde esperando D5 Só pra ganhar Um beijo de boa noite antes de dormir Em7 Daqui não é diferente G5 Te beijo mas você não sente
D5 Quando bater a saudade A9 Olhe aqui pra cima Em7 Sabe lá no céu aquela estrelinha Que eu muitas vezes G5 Mostrei pra você D5 Hoje é minha morada A9 É minha casinha Em7 Mesmo que de longe tão pequenininha A9 D9 Ela brilha mais toda vez que te vê
Solo Em7 G5 Bm7(11) D5 A4 Tab - Solo Intro
Parte 1 de 2 
E|---0-2--------------------------------------------| 
B|-3--------3-----3/5-5/7-7\------3-----------------| 
G|------------0-----------------0-------------------| 
D|----------------------------0---------------------| 
A|--------------------------------------------------| 
E|-------0------------------3-----------------------|
Parte 2 de 2 
E|--------------------------------------------------| 
B|-3-3-3/5-5/7-------7--3-5p3-3~--------------------| 
G|-----------------7----2-----2~--------------------| 
D|---------------0------0-----2~--------------------| 
A|----------------------------0---------------------| 
E|-------------7------------------------------------|

Pre-Chorus

Em7 Lembra de quando G5 Eu ficava acordado até tarde esperando D5 Só pra ganhar Um beijo de boa noite antes de dormir Em7 Daqui não é diferente G5 Te beijo mas você não sente
D5 Quando bater a saudade A9 Olhe aqui pra cima Em7 Sabe lá no céu aquela estrelinha Que eu muitas vezes G5 Mostrei pra você D5 Hoje é minha morada A9 É minha casinha Em7 Mesmo que de longe tão pequenininha A9 D9 Ela brilha mais toda vez que te vê Em7 Enxugue esse rosto G5 E venha aqui fora como de costume D5 Vamos conversar D9 Pra te alegrar tem até vagalume
Final
E|-7------------------------------------------------| 
B|-7------------------------------------------------| 
G|-7------------------------------------------------| 
D|-7------------------------------------------------| 
A|-7------------------------------------------------| 
E|-7------------------------------------------------|

roll up this ad to continue

share this page

See Also: