E-Chords
Jeferson Amaro

Até Você Voltar(Chords)

Jeferson Amaro

Key: G
Intro: G 

Solo Intro: 


 
E|----------------------------------------------------| 
B|-4/6-6-6-6-6-6-6p4-3--------------------------------| 
G|---------------------5-3-3/5-3----------------------| 
D|----------------------------------------------------| 
A|----------------------------------------------------| 
E|----------------------------------------------------| 
Primeira Parte: G Aqui sentado nessa mesa D9/F# Só o copo de cerveja é minha companhia Em7 E essa casa está tão cheia C9 E parece vazia sem você comigo G E hoje está fazendo um ano D9/F# Aqui no meu calendário Ainda está marcando Em7 O dia e o mês, foi a primeira vez E o que me prometeu C9 Será que se esqueceu Pré-refrão: Em De todos nossos planos Nossos filhos, nosso apartamento Bm Da nossa lua de mel Do nosso casamento Am Como pude acreditar C9 Nesse seu juramento Cm E agora estou sozinho outra vez
G De copo sempre cheio, coração vazio D Tô me tornando um cara Em Solitário e frio C9 Vai ser difícil eu me apaixonar de novo D E a culpa é sua G D Antes embriagado do que iludido Acreditar no amor Em Já não faz mais sentido C9 Eu vou continuar nessa vida bandida D G Até você voltar
Base Solo Principal: G D Am C9 Solo Principal: Parte 1
 
E|----------------------------------------------------| 
B|-4/6-6-6-6-6-6-6p4-3--------------------------------| 
G|---------------------5-5p3-3/5----------------------| 
D|----------------------------------------------------| 
A|----------------------------------------------------| 
E|----------------------------------------------------| 
Parte 2
 
E|---------------6-6-6p5------------------------------| 
B|-4/6-6-6-6-8-6---------6-8--------------------------| 
G|----------------------------------------------------| 
D|----------------------------------------------------| 
A|----------------------------------------------------| 
E|----------------------------------------------------| 
Parte 3
 
E|----------------------------------------------------| 
B|-10-10-10-8-6-6h8--8-8-8-6-4-4----------------------| 
G|-10-10-10-8-7-7h8--8-8-8-7-5-3----------------------| 
D|----------------------------------------------------| 
A|----------------------------------------------------| 
E|----------------------------------------------------|
Parte 4
 
E|----------------------------------------------------| 
B|---------4/6-4-3-1h3-3------------------------------| 
G|---2-3-5-5/7-5-3-2h3-3------------------------------| 
D|-5--------------------------------------------------| 
A|----------------------------------------------------| 
E|----------------------------------------------------| 
Pré-refrão: Em De todos nossos planos Nossos filhos, nosso apartamento Bm Da nossa lua de mel Do nosso casamento Am Como pude acreditar C9 Nesse seu juramento Cm D E agora estou sozinho outra vez Refrão: G De copo sempre cheio, coração vazio D Tô me tornando um cara Em Solitário e frio C9 Vai ser difícil eu me apaixonar de novo D E a culpa é sua G D Antes embriagado do que iludido Acreditar no amor Em Já não faz mais sentido C9 Eu vou continuar nessa vida bandida D G Até você voltar G De copo sempre cheio, coração vazio D Tô me tornando um cara Em Solitário e frio C9 Vai ser difícil eu me apaixonar de novo D E a culpa é sua G D Antes embriagado do que iludido Acreditar no amor Em Já não faz mais sentido C9 Eu vou continuar nessa vida bandida D G Até você voltar Final: (G D Am C9) G Até você voltar Solo Final: Parte 1
 
E|----------------------------------------------------| 
B|-4/6-6-6-6-6-6-6p4-3--------------------------------| 
G|---------------------5-5p3-3/5----------------------| 
D|----------------------------------------------------| 
A|----------------------------------------------------| 
E|----------------------------------------------------| 
Parte 2
 
E|---------------6-6-6p5------------------------------| 
B|-4/6-6-6-6-8-6---------6-8--------------------------| 
G|----------------------------------------------------| 
D|----------------------------------------------------| 
A|----------------------------------------------------| 
E|----------------------------------------------------| 
Parte 3
 
E|----------------------------------------------------| 
B|-10-10-10-8-6-6h8--8-8-8-6-4-4----------------------| 
G|-10-10-10-8-7-7h8--8-8-8-7-5-3----------------------| 
D|----------------------------------------------------| 
A|----------------------------------------------------| 
E|----------------------------------------------------|

roll up this ad to continue

share this page

See Also: