E-Chords
Jayne

De Hoje Em Diante (part. Eduardo Costa)(Chords)

Jayne

roll up this ad to continue

Key: G
G               D/F# 
De hoje em diante vamos viver 
       C     D 
Daqui pra frente só eu eu você 
     C            G 
Nesse instante, graças a Deus 
C   D   C 
Somos enfim nós 

G                 D/F# 
De hoje em diante bênçãos do céu 
    C        D 
Prometo sim e serei fiel 
    C       G 
Mesmo em sonhos, eu e você 
 C  D   C 
Somos enfim nós 

G                C 
Eu juro me entregar de coração 
     D/F# 
Mal posso acreditar que 
   C    G 
Vamos sempre estar 
G        Am   G/B   C 
E juntos para nunca separar 
  Em      C    G       D 
Nós dois, na dor, na paz, no amor 

       A            E 
De hoje em diante, mais que pra mim 
    D                E 
Tudo eu farei, pra te ver feliz 
    D            A 
Nesse instante, somos só um 
Bm   E    D 
Somos enfim, nós 

Solo A  F#m  D  E  

Tab - Solo 

E|-----12-12/14-----------------------------| 
B|--/14--------/14~---14\12-10-9-10---------| 
G|---------------------------------11~------| 
D|------------------------------------------| 
A|------------------------------------------| 
E|------------------------------------------|
E|----16-17-16----16-17-17b19~------19b21~--| 
B|--17------17----------17------------------| 
G|------------------------------------------| 
D|------------------------------------------| 
A|------------------------------------------| 
E|------------------------------------------|
A D Eu juro me entregar de coração E Mal posso acreditar D A Que vamos sempre estar A D Juntos para nunca separar F#m D A E Nós dois, na dor, na paz, no amor B F# Nesse instante, mais que pra mim E Tudo eu farei F# Pra te ver feliz E B De hoje em diante, somos só um C#m F# Somos, enfim E Eu te amo B E sou feliz C#m F# E F# B Somos enfim, nós
share this page

See Also: