E-Chords
Jay Jay Johanson

Keep It A Secret(Chords)

Jay Jay Johanson

roll up this ad to continue

Key: F#m
Intro 0:00 
e--------4----------5-----------11-9--| 
B--2--4--------4--5--------9-10-------| 
G-------------------------------------| 
D-------------------------------------| 
A-------------------------------------| 
E-------------------------------------|x3 
Verse 0:33 F#m F You know I'm not a single man Bm E But anyway you think you can F#m F Come up to me and make a try B E B By saying make this a night to remember E E
F# What you said to me B What you did to me D F# What you wanted me to do F# What you said last night B When you came up tight D F# What was I supposed to do
Chorus Riff 1:11 
e-------------------------------------| 
B-------------------------------------| 
G-----6-------5b------------------11--| 
D---4---4--3--------3--5--------------| 
A-------------------------------------| 
E-------------------------------------| 



Intro 1:22 

e--------4----------5-----------11-9--| 
B--2--4--------4--5--------9-10-------| 
G-------------------------------------| 
D-------------------------------------| 
A-------------------------------------| 
E-------------------------------------| 
verse 1:33 F#m F I don't know what made you believe Bm E My simple heart could be so weak F#m F That I could fall for your offence B E B In saying make this a night to remember E E
F# What you said to me B What you did to me D F# What you wanted me to do F# What you said last night B When you came up tight D F# What was I supposed to do
Chorus Riff 2:11 
e-------------------------------------| 
B-------------------------------------| 
G-----6-------5b------------------11--| 
D---4---4--3--------3--5--------------| 
A-------------------------------------| 
E-------------------------------------| 
Pont 2:22 A A# B B C C# Don't worry, don't worry E F F# You know my lips are sealed A A# B B C C# Don't worry, don't worry E F F# You know my lips are sealed E E E E
F# What you said to me B What you did to me D F# What you wanted me to do F# What you said last night B When you came up tight D F# What was I supposed to do
Chorus Riff 3:02 
e-------------------------------------| 
B-------------------------------------| 
G-----6-------5b------------------11--| 
D---4---4--3--------3--5--------------| 
A-------------------------------------| 
E-------------------------------------| 
F# What you said to me B What you did to me D F# What you wanted me to do F# What you said last night B When you came up tight D F# What was I supposed to do
Chorus Riff 3:25 
e-------------------------------------| 
B-------------------------------------| 
G-----6-------5b------------------11--| 
D---4---4--3--------3--5--------------| 
A-------------------------------------| 
E-------------------------------------| 



Solo 3:35 

e-------------------------------------| 
B-------------------------------------| 
G--------6-7-6----------4-5-4---------| 
D---4-7-----------4--7----------------| 
A-------------------------------------| 
E-------------------------------------| 

e-------------------------------------| 
B-------------------------------------| 
G--------2-4-2------------------------| 
D---4-7----------6--4-----------------| 
A----------------------4--------------| 
E-------------------------------------| 

Play the Solo a Second Time with the Chorus Riff. 



Outro 3:59 

e--------4----------5-----------11-9--| 
B--2--4--------4--5--------9-10-------| 
G-------------------------------------| 
D-------------------------------------| 
A-------------------------------------| 
E-------------------------------------|x2
share this page

See Also: