E-Chords
Jason Mraz

I'm Yours(Chords)

Jason Mraz

Watch the video lesson
Key: B
Intro:    
e|-7/9-7---7/9-6---7/9-------------7/9-7---7/9-6---7/9-----------|    
B|-7/9-7---7/9-6---7/9-9-----------7/9-7---7/9-7---7/9-9---9-9---|    
G|---------------------8---8/9-------------------------8---8-8/9-|    
D|-----------------------------9~--------------------------------|    
A|---------------------------------------------------------------|    
E|---------------------------------------------------------------|    
B Well, you done done me and you bet I felt it. F# I tried to be chill but you're so hot that I melted . G#m E I fell right through the cracks, now I'm trying to get back B Before the cool done run out, I'll be giving it my bestest, F# And nothing's going to stop me but divine intervention. G#m E I reckon it's again my turn to win some or learn some, B F# G#m But I won't hesitate no more, no more.
    
e|-7/9-7---7/9-6---7/9-------------7/9-7---7/9-6---7/9-----------|    
B|-7/9-7---7/9-6---7/9-9-----------7/9-7---7/9-7---7/9-9---9-9---|    
G|---------------------8---8/9-------------------------8---8-8/9-|    
D|-----------------------------9~--------------------------------|    
A|---------------------------------------------------------------|    
E|---------------------------------------------------------------|    
B F# Well, open up your mind and see like me. G#m Open up your plans and then you're free. E Look into your heart and you'll find love, love, love. B F# Listen to the music of the moment, people, dance and sing, G#m We're just one big family E F(b5) And it's your God-forsaken right to be loved, loved, loved, loved, loved.
B F# G#m So I won't hesitate no more, no more, E It cannot wait, I'm sure. B F# G#m There's no need to complicate, our time is short, E This is our fate, I'm yours.
Solo B F# G#m Do do do do do do do do do F# E Do do do do do do do do do B I've been spending way too long checking my tongue in the mirror F# And bending over backwards just to try to see it clearer, G#m But my breath fogged up the glass E And so I drew a new face and I laughed, B I guess what I be saying is there ain't no better reason F#m To rid yourself of vanity and just go with the seasons. G#m E It's what we aim to do, our name is our virtue.
B F# G#m So I won't hesitate no more, no more, E It cannot wait, I'm yours. B F# G#m There's no need to complicate, our time is short. E This is our fate, I'm yours
B F# G#m I won't hesitate no more, no more E It can't wait, I'm sure B F# G#m There's no need to complicate, our time is short E It cannot wait, I'm yours B F# G#m I won't hesitate no more, no more E It cannot wait, I'm sure, B F# G#m There's no need to complicate, our time is short. It can't not wait, I'm yours.

roll up this ad to continue

share this page

See Also: