E-Chords
Jack And The Weatherman

Being Me(Chords)

Jack And The Weatherman

roll up this ad to continue

Key: Am
Capo on 2nd fret
 
 


Intro Picking: 
E-------------------------0---------------------------------------------3-------------- 
B----1-----------1--------------------1----------1----------1-------3------------------ 
G-----------2--------------------2----------------------2------------------------------ 
D---------2----------2---------2---------2------------2--------2----------------------- 
A----0---------0----------0---------0------------0--------0---------0---2-------------- 
E-------------------------------------------------------------------------------------- 

E----0--------------------------3------------ 
B---------------1-------------------3-------- 
G----------0--------------------------------- 
D--------2--------2-----x3------------------- 
A----3--------3-----------------3---2-------- 
E-------------------------------------------- 
Am B/G C B/G -VERSE- Am B/G C Tell me all about you, tell me all about the struggles of your life B/G Am C B/G Everybody has a story to tell and I can almost see yours through your eyes Am B/G C Well if that's your biggest secret then I'm sorry but I will not tell you mine B/G Am G Seems like you had a bumpy ride and I must say as nice as get to know Am G Am Please don't get close, please don't
F Am 'Cause I'm good at being me, just cruising on my own F Am I've never been nobody else and it's all I've ever known F Am I know exactly what I want, I know exactly who I am F Am I'm only good at being me and I hope you'll understand
-VERSE- Am C Staring at your lips as you're telling me a story 'bout your friends Am C Haven't heard a single word you said - guess you can't help me, beautiful Am C And I like the way you laugh and move, I like spending my time with you somehow Am G Feels like I know you all along and it's nice to get to know Am G Am Please don't get close, please don't
F Am 'Cause I'm good at being me, just cruising on my own F Am I've never been nobody else and it's all I've ever known F Am I know exactly what I want, I know exactly who I am F Am I'm only good at being me and I hope you'll understand
-BRIDGE- Em Am And I'm sorry that I hurt you but, hey, life is for the living, yeah Em Am We ran and sang and cried and danced, so isn't that worth some forgiving, yeah?
F Am 'Cause I'm good at being me, just cruising on my own F Am I've never been nobody else and it's all I've ever known F Am I know exactly what I want, I know exactly who I am F Am I'm only good at being me and I hope you'll understand
share this page

See Also: