E-Chords
Izal

Magia Y Efectos Especiales(Chords)

Izal

roll up this ad to continue

Key: C
Intro 

e|----------------0--|-------------------|----------------0--|-------------------| 
B|-------------------|--------0----------|-------------------|--------0----------| 
G|------------0------|-------------------|------------0------|-------------------| 
D|--------0----------|-------------------|--------0----------|-------------------| 
A|----3--------------|-------------------|----3--------------|-------------------| 
E|--1---1---1---1----|--1---1---1---1----|--1---1---1---1----|--1---1---1---1----| 

e|-------------------|-------------------|-------------------|-------------------| 
B|-------------------|-------------------|-------------------|-------------------| 
G|------------0------|------------0------|------------0------|------------0------| 
D|--------0-------0--|--------0-------0--|--------0-------0--|--------0-------0--| x2 
A|----5--------------|----5--------------|----5--------------|----5--------------| 
E|--3---3---3---3----|--3---3---3---3----|--3---3---3---3----|--3---3---3---3----| 




e|-------------------|-------------------|-------------------|-------------------| 
B|-------------------|-------------------|-------------------|-------------------| 
G|------------0------|------------0------|------------0------|------------0------| 
D|--------0-------0--|--------0-------0--|--------0-------0--|--------0-------0--| 
A|----3--------------|----3--------------|----3--------------|----3--------------| 
E|--1---1---1---1----|--1---1---1---1----|--1---1---1---1----|--1---1---1---1----| 

e|-------------------|-------------------|-------------------|-------------------| 
B|-------------------|-------------------|-------------------|-------------------| 
G|------------0------|------------0------|------------0------|------------0------| 
D|--------0-------0--|--------0-------0--|--------0-------0--|--------0-------0--| x2 
A|----5--------------|----5--------------|----5--------------|----5--------------| 
E|--3---3---3---3----|--3---3---3---3----|--3---3---3---3----|--3---3---3---3----| 




e|-------------------|-------------------|-------------------|-------------------| 
B|-------------------|-------------------|-------------------|-------------------| 
G|------------0------|------------0------|------------0------|------------0------| 
D|--------0-------0--|--------0-------0--|--------0-------0--|--------0----------| x2 
A|----3--------------|----3--------------|----3--------------|----3--------------| 
E|--1---1---1---1----|--1---1---1---1----|--1---1---1---1----|--1---1---1--------| 



Verse 

   Sigo               oyendo hablar de     magia y            efectos  espe-    
e|-------------------|-------------------|-------------------|-------------------| 
B|-------------------|-------------------|-------------------|-------------------| 
G|------------0------|------------0------|------------0------|------------0------| 
D|--------0-------0--|--------0-------0--|--------0-------0--|--------0-------0--| 
A|----3--------------|----3--------------|----3--------------|----3--------------| 
E|--1---1---1---1----|--1---1---1---1----|--1---1---1---1----|--1---1---1---1----| 

   ciales 
e|-------------------|-------------------|-------------------|-------------------| 
B|------------3------|------------3------|------------0------|------------0------| 
G|--------0-------0--|--------0-------0--|--------0-------0--|--------0-------0--| 
D|----2--------------|----2--------------|----2--------------|----2--------------| 
A|--3---3---3---3----|--3---3---3---3----|--3---3---3---3----|--3---3---3---3----| 
E|-------------------|-------------------|-------------------|-------------------| 

    Sigo              viendo en la      distancia           fuegos artifi-    
e|-------------------|-------------------|-------------------|-------------------| 
B|-------------------|-------------------|-------------------|-------------------| 
G|------------0------|------------0------|------------0------|------------0------| 
D|--------0-------0--|--------0-------0--|--------0-------0--|--------0-------0--| 
A|----3--------------|----3--------------|----3--------------|----3--------------| 
E|--1---1---1---1----|--1---1---1---1----|--1---1---1---1----|--1---1---1---1----| 

   ciales                                           explo-     tando 
e|-------------------|-------------------|-------------------|-------------------| 
B|------------3------|------------3------|------------0------|------------0------| 
G|--------0-------0--|--------0-------0--|--------0-------0--|--------0-------0--| 
D|----2--------------|----2--------------|----2--------------|----2--------------| 
A|--3---3---3---3----|--3---3---3---3----|--3---3---3---3----|--3---3---3---3----| 
E|-------------------|-------------------|-------------------|-------------------| 

   Sigo              odiando   las      historias                  de  mari- 
e|-------------------|-------------------|-------------------|-------------------| 
B|-------------------|-------------------|-------------------|-------------------| 
G|------------0------|------------0------|------------0------|------------0------| 
D|--------0-------0--|--------0-------0--|--------0-------0--|--------0-------0--| 
A|----3--------------|----3--------------|----3--------------|----3--------------| 
E|--1---1---1---1----|--1---1---1---1----|--1---1---1---1----|--1---1---1---1----| 

   posas                       caniva-     les     que        muerden      ba- 
e|-------------------|-------------------|-------------------|-------------------| 
B|------------3------|------------3------|------------0------|------------0------| 
G|--------0-------0--|--------0-------0--|--------0-------0--|--------0-------0--| 
D|----2--------------|----2--------------|----2--------------|----2--------------| 
A|--3---3---3---3----|--3---3---3---3----|--3---3---3---3----|--2---2---2---2----| 
E|-------------------|-------------------|-------------------|-------------------| 

   jo la  piel                                              y llenan        el 
e|-------------------|-------------------|-------------------|-------------------| 
B|------------1------|------------1------|------------1------|------------1------| 
G|--------2-------2--|--------2-------2--|--------2-------0--|--------2-------0--| 
D|----2--------------|----2--------------|----2--------------|----2--------------| 
A|--0---0---0---0----|--0---0---0---0----|--0---0---0---0----|--0---0---0---0----| 
E|-------------------|-------------------|-------------------|-------------------| 
C CM7 Aire F C CM7 Sigo esperando a que tú, me digas que me marche F C CM7 Sigo arruinando el momento, llegando siempre tarde a tu encuentro F C CM7 Sigo royendo las sobras que encuentro en la calle Em Am Y empieza el baile D Dsus4 D Sigo de traje F G Y corbata Am7 F Am7 Todos a la mesa, todos menos tú F Todos a la pista, todos menos tú Am7 Todos a la foto, todos menos tú F Todos están locos, todos menos tú Am7 Todos masticando, todos menos tú F Todos girando, todos menos tú Am7 Todos de piedra, todos menos tú F N.C. Todos a la mierda, sobre todo tu C Em7 Todos explotando, todos menos tú Am Asus2 Am G Todos mareándose, todos menos tú C Em7 Todos de gesto raro, todos menos tú Am Asus2 Am G Todos te están mirando, todos te están mirando C N.C. Em7 Todos explotando, todos menos tú Am N.C. Todos mareándose, todos menos tú C Em7 Todos con gesto raro, todos menos tú Am Asus2 Am Asus2 Todos te están mirando, todos te están mirando Am N.C. Todos te están mirando N.C. Todos te están mirando
Outro 

e|----------------0--|-------------------|----------------0--|-------------------| 
B|-------------------|--------0----------|-------------------|--------0----------| 
G|------------0------|-------------------|------------0------|-------------------| 
D|--------0----------|-------------------|--------0----------|-------------------| 
A|----3--------------|-------------------|----3--------------|-------------------| 
E|--1---1---1---1----|--1---1---1---1----|--1---1---1---1----|--1---1---1---1----| 

e|----------------0--|-------------------|----------------0--|-------------------| 
B|------------2------|--------0----------|------------2------|--------0----------| 
G|--------0----------|-------------------|--------0----------|-------------------| 
D|----2--------------|-------------------|----2--------------|-------------------| 
A|--3---3---3---3----|--3---3---3---3----|--3---3---3---3----|--3---3---3---3----| 
E|-------------------|-------------------|-------------------|-------------------| 

   Sigo               oyendo hablar de     magia y            efectos  espe-    
e|-------------------|-------------------|-------------------|-------------------| 
B|-------------------|-------------------|-------------------|-------------------| 
G|------------0------|------------0------|------------0------|------------0------| 
D|--------0-------0--|--------0-------0--|--------0-------0--|--------0-------0--| 
A|----3--------------|----3--------------|----3--------------|----3--------------| 
E|--1---1---1---1----|--1---1---1---1----|--1---1---1---1----|--1---1---1---1----| 

  ciales 
e|-------------------|-------------------|-------------------|-------------------| 
B|------------3------|------------3------|------------0------|-------------------| 
G|--------0-------0--|--------0-------0--|--------0----------|-------------------| 
D|----2--------------|----2--------------|----2--------------|-------------------| 
A|--3---3---3---3----|--3---3---3---3----|--3---3---3--------|-------------------| 
E|-------------------|-------------------|-------------------|-------------------|
share this page

See Also: