E-Chords
Isaac Gracie

Reverie(Chords)

Isaac Gracie

roll up this ad to continue

Key: Ab
Intro: Ab  Eb  Db 

      Ab                   Eb                   Db 
E|---------------------------------------------------------------------|  
B|---------------------------------------------------------------------| 
G|---5-------3/5-3-1/3-1-----3-----1/3-1----------1----------1-3/5-3-1-| 
D|---6-(x3)------------------5-(x3)------3/5-3----3-(x3)-1/3-----------| 
A|-------------------------6--------------------4----------------------| 
E|-4-------------------------------------------------------------------|
Ab Hey babe Eb What do you expect me to say? Db I could tell you that I'm doing great Ab But darling I'm just not okay Ab Hey babe Eb Why did we throw it away? Db Without you I just ain't the same Ab And darling I'm just not okay repeat the main riff Ab Hey babe Eb I've been putting on my bravest face Db Just looking for ways to replace you Ab And darling I'm just not okay Ab Hey babe Eb It isn't like me to complain Db But you don't look at me the same Ab And darling I'm just not okay
      Ab                   Eb                   Db 
E|---------------------------------------------------------------------|  
B|---------------------------------------------------------------------| 
G|---5-------3/5-3-1/3-1-----3-----1/3-1----------1----------1-3/5-3-1-| 
D|---6-(x3)------------------5-(x3)------3/5-3----3-(x3)-1/3-----------| 
A|-------------------------6--------------------4----------------------| 
E|-4-------------------------------------------------------------------| 
Ab Hey babe Eb What do you expect me to say? Db I could tell you that I'm doing great Ab But darling I'm just not okay
share this page

See Also: