E-Chords
Iggy Pop

In The Lobby(Chords)

Iggy Pop

Key: G
Intro: G 

   E 
e|-----0-3--2--3-----------|----------------0--------| 
B|-------------------------|--3--3---3---3-----------| 
G|-------------------------|-------------------------| 
D|-------------------------|-------------------------| 
A|-------------------------|-------------------------| 
E|-0-----------------------|-------------------------| 

   E 
e|----0-0-3--2--3------0-0-|-5s7----5-----3-----0----| 
B|-------------------------|-------------------------| 
G|-------------------------|-------------------------| 
D|-------------------------|-------------------------| 
A|-------------------------|-------------------------| 
E|-0-----------------------|-------------------------|
Verse E Breaking zee chain in the lobby C A# E E An ocean of bodies, and then there's me C A# E E And I hope I'm not, losing my life tonight G E And it's all about the hang G E And it's all about the crowd that hangs G E And it's all about the hook C A# E E Somebody is losing their life tonight Verse E I followed my shadow, and it lead me here C A# E E What is the problem, if I disappear? C A# E E And I hope I'm not, losing my life tonight G E And it's all about the edge G E And it's all about the fans and kids G E And it's all about the sex G And it's all about guns Yeah I followed my shadow tonight Out of the light Yeah I followed my shadow tonight Out of the light Verse E My shadow is walking in front of me C A# E E The longer the night, the shorter my leash, And it's a long, long night C A# E E And I hope I'm not, losing my life tonight G E And it's all about the kicks G E And it's all about the dancing pricks G E And it's all about the clowns G And it's all about guns Yeah I followed my shadow tonight Out of the light Yeah I followed my shadow tonight Out of the light Out of the light Get out of sight Out of the light Get out tonight Out of the light Get out of sight Out of the light Get out tonight

roll up this ad to continue

share this page

See Also: