E-Chords
Hozier

It Will Come Back(Chords)

Hozier

roll up this ad to continue

Key: Dm
  

Intro:  Riff  X4 

d|----0------0--------0--------0--------0-----0---------0--------0----------| 
A|----0------0--------0--------0--------0-----0---------0--------0----------| 
F|-------------0--------------------------------0---------------------------| 
D|-----------0--------------------------------0-----------------------------| 
A|------0-3-----3/5-3-0-------------------0-3-----3/5-3-0-------------------| 
D|--0-------------------/6-5-3-0-h3--p0-------------------/6-5-3-0-h3-------| 

d|-----0------0--------0--------0--------0-----0---------0-------------------| 
A|-----0------0--------0--------0--------0-----0---------0-------------------| 
F|--------------0--------------------------------0---------------------------| 
D|------------0--------------------------------0-----------------------------| 
A|-------0-3-----3/5-3-0-------------------0-3-----3/5-3-0-------------------| 
D|--p0-------------------/6-5-3-0-h3--p0------------------/7-6-5-3-/6-5-3-0--| 


************************************ 
| /   slide up 
| \   slide down 
| h   hammer-on 
| p   pull-off 
************************************ 


    Dm  C Dm   Gmin        F    Bbmaj7  A7sus4 
d|---0----0-----0--/--0----0------0-------0------| 
A|---0----0-----0--/--0----0------0-------0------| 
F|---0----0-----0--/--0----0-----(9)------0------| 
D|---0----0-----0--/--2----0------0-------0------| 
A|---5----3-----0--/-------3------8-------0------| 
D|---0----X-----5--/-------3------8-------7------| 


OR if you don't want to tune your guitar down 

     Dm  C Dm  Gm    F       Bbmaj7    A7sus4 
e|---5----1-----3----1---------X--------5---| 
B|---6----3-----3----1---------6--------5---| 
G|---7----2-----3----2---------7--------7---| 
D|---7----0-----5----3---------7--------5---| 
A|---5----3-----5----3---------X--------7---| 
E|---X----X-----3----1---------6--------5---| 
Dm C Dm You know better babe, you know better babe, Gm Than to look at it, look at it like that. Dm C Dm You know better babe, you know better babe, Gm Than to talk to it, talk to it like that. Bbmaj7 Asus4 Don't give it a hand, offer it a soul Dm Honey, make this easy. Bbmaj7 Asus4 Leave it to the land, this is what it knows Dm Honey, that's how it sleeps. Bbmaj7 A7sus4 Don't let it in with with no intention to keep it F Jesus Christ, don't be kind to it. Gm Dm Honey don't feed it, it will come back. Riff X2 Dm C Dm You know better babe, you know better babe, Gm Than to smile at me, smile at me like that Dm C Dm You know better babe, you know better babe, Gm Than to hold me just, hold me just like that. Bbmaj7 A7sus4 I know who I am when I'm alone Dm Something else when I see you Bbmaj7 A7sus4 You don't understand, you should never know Dm How easy you are to need Bbmaj7 A7sus4 Don't let me in with with no intention to keep me F Jesus Christ, don't be kind to me. Gm Dm Honey don't feed me I will come back. Riff X2 Dm C Dm Gm X2 Gm Can't be unlearned I've known the warmth of your doorways Through the cold, I'll find my way back to you Gm Dm (riff X1) Oh please, give me mercy no more. Gm Dm (riff X1) That's a kindness you can't avoid! Bbmaj7 I want you baby tonight, as sure as you're born A7sus4 Dm You'll hear me howling outside your door. Dm Don't you hear me howling babe? Gm Don't you hear me howling babe? Dm Don't you hear me howling babe? Gm Don't you hear me howling Dm Don't you hear me howling Gm Don't you hear me howling babe?
share this page

See Also: