E-Chords
Hotel Brasília

Piano Bar(Chords)

Hotel Brasília

Key: C
Intro: C  G  E  Am    
        C  F  Em  Am  
        Dm  G7  C 

Verse 1:

C G E O que você me pede e eu não posso fazer Am C F Assim você me perde,e eu perco você Em Am Como um barco perde o rumo Dm G4(9) G C Como uma árvore no outono perde a cor G E O que você não pode eu não vou te pedir Am C F O que você não quer eu não quero insistir Em Am Diga a verdade, doa a quem doer Dm G4(9) G C Doe sangue e me dê seu telefone G E Todos os dias eu venho ao mesmo lugar Am C F Às vezes fica longe, impossível de encontrar Em Am Dm G4(9) G C Mas, quando o bourbon é bom toda noite é noite de luar G E No táxi que me trouxe até aqui Bob Marley me dava razão Am C F As últimas do esporte, hora certa, crime, religião Em Am Dm G Am Na verdade nada é uma palavra esperando tradução
Passagem
       Am 
E|------------------------------------------------------| 
B|-------------12----13-----------12-13p12--------------| 
G|-------14--------------------14----------14-12--------| 
D|----14----14----14--------14--------------------------| 
A|-12--------------------12-----------------------------| 
E|------------------------------------------------------|

       Dm7            E7 
E|-----------------------------------12-----------------| 
B|-------10----12----13-----------12--------------------| 
G|-10--------------------------13-----------------------| 
D|----10----10----10--------12--------------------------| 
A|------------------------------------------------------| 
E|-10--------------------12-----------------------------|

Verse 2:

C G E Toda vez que falta luz Am C F Toda vez que algo nos falta Em Am O invisível nos salta aos olhos Dm G C Um salto no escuro da piscina G E O fogo ilumina muito por muito pouco tempo Am C Em muito pouco tempo o fogo apaga tudo F E tudo um dia vira luz Em Am Toda vez que falta luz Dm G G#º Am O invisível nos salta aos olhos

Verse 3:

Dm E Am Ontem à noite, eu conheci uma guria Dm E Am Já era tarde, era quase dia Dm E Am Era o princípio num precipício Dm E Am Era o meu corpo que caía Dm E Am Ontem à noite, a noite tava fria Dm E Am Tudo queimava, mas nada aquecia Dm E Am Ela apareceu, parecia tão sozinha Dm E Am Parecia que era minha aquela solidão
( Am7 G#7M(5+) C/G Gbm7(5-) ) ( Am7 G#7M(5+) C/G Gbm7(5-) )

Verse 4:

Dm E Am Eu conheci uma guria que eu já conhecia Dm E Am De outros carnavais, com outras fantasias Dm E Am Ela apareceu, parecia tão sozinha Dm E Am Parecia que era minha aquela solidão Dm E Am Eu conheci uma guria que eu já conhecia Dm E Am De outros carnavais, com outras fantasias Dm E Am Ela apareceu, parecia tão sozinha Dm E C Parecia que era minha aquela solidão

roll up this ad to continue

share this page

See Also: