E-Chords
Hinds

Ill Be Your Man(Chords)

Hinds

roll up this ad to continue

Key: E
Intro: E F# B F# 

verse 1 
E           C#m F# 
Ten minutes of delay 
B                  F# 
And your anger was no more there 
E                   F# 
And I'll clean your blood of all that venom 
B                            F# 
That keeps you fighting with every mirror 

bridge 
E  F#            B     F# 
     I won't let you 
E            F# 
I'll be your guide 
         B 
And I'll close your eyes 
        C# 
And you close your eyes 

guitar solo E F# B C#m E F# B C#m 

e|---------------------------------------------------------------------------| 
B|-4-5----7-9----12-9-7-4-7-5-4-4-5----7-9-----12-9-7-4-7-5-4-0--------------| 
G|---------------------------------------------------------------------------| 
D|---------------------------------------------------------------------------| 
A|---------------------------------------------------------------------------| 
E|---------------------------------------------------------------------------| 
B F# I'll make it simple B F# I don't need no gain B F# I could be your babe B F# But I'll be your man B F# I'll be your man B F# I'll be your man B F# I'll be your man
Played by another guitar during Chorus
e|-----------------------------------------------------------------------------------------| 
B|-4-7-4-2-0----4-7-0-2-0----4-7-4-2-0----4-7-9-4-0----4-7-4-2-0----4-7-4-2-0----4-7-9-7-4-| 
G|-----------------------------------------------------------------------------------------| 
D|-----------------------------------------------------------------------------------------| 
A|-----------------------------------------------------------------------------------------| 
E|-----------------------------------------------------------------------------------------| 
guitar solo E F# B C#m E F# B C#m
e|---------------------------------------------------------------------------| 
B|-4-5----7-9----12-9-7-4-7-5-4-4-5--7-9----12-9-7-4-7-5-4-------------------| 
G|---------------------------------------------------------------------------| 
D|---------------------------------------------------------------------------| 
A|---------------------------------------------------------------------------| 
E|---------------------------------------------------------------------------| 
verse 2 E C#m F# Ten minutes before twelve B F# And your pains are back to the same E F# And I'll clean your blood of all that venom B F# That drowns you deep inside what you're afraid of play repeated throughout verse 2
e|----------------| 
B|----------------| 
G|--4-3----4-3----| 
D|----------------| 
A|----------------| 
E|----------------| 
bridge E F# B F# I won't hurt you E F# I'll be your guide B And I'll close your eyes C# And you close your eyes guitar solo E F# B C#m E F# B C#m
e|---------------------------------------------------------------------------| 
B|-4-5----7-9----12-9-7-4-7-5-4-5--7-9----12-9-7-4-7-5-4---------------------| 
G|---------------------------------------------------------------------------| 
D|---------------------------------------------------------------------------| 
A|---------------------------------------------------------------------------| 
E|---------------------------------------------------------------------------| 
B F# I'll make it simple B F# I don't need no gain B F# I could be your babe B F# But I'll be your man B F# I'll be your man B F# I'll be your man B F# I'll be your man
Played by another guitar during Chorus
e|-----------------------------------------------------------------------------------------| 
B|-4-7-4-2-0----4-7-0-2-0----4-7-4-2-0----4-7-9-4-0----4-7-4-2-0----4-7-4-2-0----4-7-9-7-4-| 
G|-----------------------------------------------------------------------------------------| 
D|-----------------------------------------------------------------------------------------| 
A|-----------------------------------------------------------------------------------------| 
E|-----------------------------------------------------------------------------------------|
guitar solo E F# B C#m E F# B C#m
e|---------------------------------------------------------------------------| 
B|-4-5----7-9----12-9-7-4-7-5-4-4-5--7-9----12-9-7-4-7-5-4-------------------| 
G|---------------------------------------------------------------------------| 
D|---------------------------------------------------------------------------| 
A|---------------------------------------------------------------------------| 
E|---------------------------------------------------------------------------|
share this page

See Also: