E-Chords
Himäwari

Rabiscos (acústico)(Chords)

Himäwari

Key: G
Intro: F5+/C#  G#6 

Dedilhado 

   F5+/C# 
E|-----------------------------------------------------| 
B|-------4------4------4------4------4------4------4---| 
G|-----5------5------5------5------5------5------5-----| 
D|---3------3------3------3------3------3------3-------| 
A|-4------4------4------4------4------4------4---------| 
E|-----------------------------------------------------|

          G#6 
E|-----------------------------------------------------| 
B|-------4------4------4------4------4------4------4---| 
G|-----5------5------5------5------5------5------5-----| 
D|---3------3------3------3------3------3------3-------| 
A|-4---------------------------------------------------| 
E|--------5------5------5------5------5------5---------|

Verse 1:

F5+/C# Eu já pensei em tanta coisa G#6 Só pra te impressionar F5+/C# Eu já te expliquei sobre o mundo G#6 Só falta tu interpretar

Verse 2:

F5+/C# E se eu te disser Que eu já pensei sobre nós dois? G#6 E todos nossos sonhos Pra depois
F5+/C# Rabiscos G#6 Quantos eu já fiz? F5+/C# Sozinho G#6 Eu não estou feliz

Verse 3:

F5+/C# E se amanhã, você acordar E eu não estiver do seu lado G#6 Saiba que eu fui respirar um ar Pra pegar inspiração
Final: F5+/C# G#6

roll up this ad to continue

share this page

See Also: