E-Chords
Hill Valleys

Última Canção De Amor(Chords)

Hill Valleys

roll up this ad to continue

Key: G#
 
  G#     A#          C#     C/C#     C# 
Espera até eu conseguir parar de chorar 
  G#     A#          C#     C/C#     C# 
você se abriu e agora nega tudo que me disse 
  Eb       C#           C/C#     C# 
você pode até crescer e não ser minha 
  Eb       C#          C/C#   C# 
só não me pergunta pq eu te odeio 
 
 
 
  G#             A# 
tudo terminou / tão cedo mas você 
  Eb                 C#    C 
me fez alguém melhor e pelo menos 
 
  G#             A# 
a próxima vai / saber tudo que eu / 
  Eb                 C#    C 
aprendi com você não vou mais esquecer 
 
 
(REPETE 1ºparte) 
 
 
  G#     A#          C#     C/C#     C# 
e quando eu precisei, quando eu mais confiei (2x) 
  Eb       C#          C/C#   C# 
essa é a última canção de amor pra você 
 
 SOLO 
 
|------------------------------------------- 
|------------------------------------------- 
|5--5--------------------------------------- 
|-----6-6/8-6-6---6/8-6-6--6-8/10-8-6h8----- 
|---------------6--------------------------- 
|------------------------------------------- 
 
|------------------------------------------- 
|------------------------------------------- 
|--------8----------------------8/10-8-6h8-- 
|6/8-6-6---6/8-6-6---6/8-6-6--6------------- 
|------------------6------------------------ 
|------------------------------------------- 
 
|------------------------------------------- 
|------------------------------------------- 
|-------------------8---------------10-8-8-6 
|8/6-10/6-8/6----------8/6-10/6-6/8--------- 
|---------------6/8------------------------- 
|------------------------------------------- 
 
|------------------ 
|------------------ 
|------------------ 
|----6h8----------- 
|6h8--------------- 
|--------9h11-9/4-- 
_______________________________________________________ Contribuição: Paulo Moribe e Rafael Maekawa([email protected])
share this page

See Also: