E-Chords
Hey Monday

6 Months(Chords)

Hey Monday

roll up this ad to continue

Key: D9
Riff 1 

E||--------------------------------------------| 
B||---3-3-3-3-3-3-3-3---3-3-3-3---3-3-3-3------| 
G||---2-2-2-2-2-2-2-2---2-2-2-2---0-0-0-0------|  
D||---2-2-2-2-2-2-2-2---0-0-0-0---0-0-0-0------| 
A||--------------------------------------------| 
E||--------------------------------------------| 

Riff 2 

E||--------------------------------------------| 
B||---3-3-3-3-3-3-3-3---3-3-3-3---3------------| 
G||---2-2-2-2-2-2-2-2---2-2-2-2---0------------|  
D||---2-2-2-2-2-2-2-2---0-0-0-0---0------------| 
A||--------------------------------------------| 
E||--------------------------------------------| 
Introdução: Riff 1 Riff 2 D9 D You're the direction I follow C9 To get home D9 D When I feel like I can't go on C9 You tell me to go D9 D And it's like I can't feel a thing C9 Without you around D9 D And don't mind me if I get weak in the knees C9 Cause you have that effect on me You do D D9 Everything you say D D9 Em Everytime we kiss I can't think straight G But I'm ok D D9 D D9 And I can't think of anybody else Em G Who I hate to miss as much as I hate missing you Riff 2 D9 D C9 Months are going strong now, and all goodbye D9 D C9 Unconditional, unoriginal, always by my side D9 D Meant to be together, meant for no one but each other C9 You love me, I love you harder, so D D9 Everything you say D D9 Em Everytime we kiss I can't think straight G But I'm ok D D9 D D9 And I can't think of anybody else Em G Who I hate to miss as much as I hate missing you So please, give me your hand >> Riff 1 (3x) Riff 2 So please, give me your lesson on how to steal Em Steal a heart, as fast as you stole mine G (D D9 C9) As you stole mine D D9 Everything you say D D9 Em Everytime we kiss I can't think straight G But I'm ok D D9 D D9 And I can't think of anybody else Em G Who I hate to miss as much as I hate missing you So please, give me your hand >> Riff 1 So please, just take my hand >> Riff 2
share this page

See Also: