E-Chords
Hector

Vastatuuleen(Chords)

Hector

roll up this ad to continue

Key: Am
 Verses tapped 

  (Am)                                      (C) 
   
e|-0---------0---------0----------0----------0----------0----------0----------0---------- 
B|-----1---------1----------1----------1----------1----------1----------1----------1----- 
E|---2---2-----2---2------2---2------2---2------0---0------0---0------0---0------0---0--- 
D|--------------------------------------------------------------------------------------- 
A|-0---------0---------0----------0----------3----------3----------3----------3---------- 
E|--------------------------------------------------------------------------------------- 

(Em9)  

  -0---------0---------0---------0---------------| 
  -----3---------3---------3----------3----------| 
  ---0---0-----0---0-----0---0------0---0--------| 
  -----------------------------------------------| 
  -5---------5---------5---------5---------------| 
  -----------------------------------------------| 
verse 1 Am C olen etsinyt niin kauan, mutta tutkin väärää suuntaa Em9 Am piiloutuiko hän puun taa, vai yön hämäriin Am C Olin saanut lupauksen, jonka sydän otti vastaan Em9 Am tietäen ainoastaan, matka pitkä on viel Pre Chorus Am G Onks mul vikaa silmissä, kun nään sun hahmon pilvissä F Am G F ja mä toivon että löydän sut, vaikka usko onkin hiipunut
G Am F C Ja mä huudan mut kukaan ei kuule, G Am F C kun mä huudan vastatuuleen
verse 2 Am C Joskus pienenä mä uskoin maahisiin ja haltijoihin, Em9 Am ja ihmeisiin ja enkeleihin jotka jeesaa yli synkänkin virran, myöhemmin mä tajusin et ne kaikki olikin vaan satujen varjoja, C unia ja toiveita et olis jotain vielä elämääkin suurempaa, Em9 mutku mä olin kuilun partaalla ja huusin apuun koko taivasta, Am sieltä ei vastattu koskaan se tuuttas varattua aina vaan, enkä tiedä ehdinkö mä enää venaamaan. Am G F Mut tää elämä kyl kantaa maaliin Pre Chorus Am G Onks mul vikaa silmissä, kun nään sun hahmon pilvissä F Am G F ja mä toivon että löydän sut, vaikka usko onkin hiipunut
G Am F C Ja mä huudan mut kukaan ei kuule, G Am F C kun mä huudan vastatuuleen G Am F C Ja mä huudan mut kukaan ei kuule, G Am F C kun mä huudan vastatuuleen G Am F C Ja mä huudan mut kukaan ei kuule, G Am F C kun mä huudan vastatuuleen
G Am F C vastatuuleen G Am F C vastatuuleen
share this page

See Also: