E-Chords
Halfway Deserted

Dreams(Chords)

Halfway Deserted

roll up this ad to continue

Capo on 1st fret


Intro/Verse 
E|-------------------------|------------------------|\ 
B|-------------------------|------------------------| \ 
G|---2--2--2--2--2--2--2--2|--2--2--2--2--2--2--2--2|  \ 
D|--0--0--0--0--0--0--0--0-|-0--0--0--0--0--0--0--0-|   \  
A|-2--2--0--0--4--4--------|2--2--------0--0--0--0--|    \ 
E|-------------------3--3--|------3--3--------------|     \ 
 |                                                         \ 
 |                                                          X3 
 |                                                         /  
E|-------------------------|------------------------|     / 
B|--3--3--3--3--3--3--3--3-|-3--3--3--3--3--3--3--3-|    / 
G|---2--2--2--2--2--2--2--2|--2--2--2--2--2--2--2--2|   / 
D|-------------------------|------------------------|  / 
A|-2--2--0--0--4--4--------|2--2--------0--0--0--0--| / 
E|-------------------3--3--|------3--3--------------|/ 

PreChorus 
E|-3~-2~-3~-3~-| 
B|-3~-3~-3~-3~-| 
G|-0~-2~-0~-0~-| 
D|-0~-0~-0~-0~-| 
A|-2~----2~-2~-| 
E|-3~----3~-3~-| 
  
Chorus 
E|-2--2-2-2-2-2--2-2-2-2-3--3-3-3-3-3--3-3-3-3-2--2-2-2-2-3--3-3-3-3-0--0-0-0-0-0--0-0-0-0| 
B|-3--3-3-3-3-3--3-3-3-3-3--3-3-3-3-3--3-3-3-3-3--3-3-3-3-3--3-3-3-3-3--3-3-3-3-3--3-3-3-3| 
G|-2--2-2-2-2-2--2-2-2-2-0--0-0-0-0-0--0-0-0-0-4--4-4-4-4-0--0-0-0-0-3--3-3-3-3-3--3-3-3-3| 
D|-0--0-0-0-0-0--0-0-0-0-0--0-0-0-0-0--0-0-0-0-4--4-4-4-4-0--0-0-0-0-3--3-3-3-3-3--3-3-3-3| 
A|-----------------------2--2-2-2-2-2--2-2-2-2-2--2-2-2-2-2--2-2-2-2-0--0-0-0-0-0--0-0-0-0| 
E|-----------------------3--3-3-3-3-3--3-3-3-3------------3--3-3-3-3----------------------| 

E|-2--2-2-2-2-2--2-2-2-2-3--3-3-3-3-3--3-3-3-3-2--2-2-2-2-0--0-0-0-0-3~-| 
B|-3--3-3-3-3-3--3-3-3-3-3--3-3-3-3-3--3-3-3-3-3--3-3-3-3-3--3-3-3-3-3~-| 
G|-2--2-2-2-2-2--2-2-2-2-0--0-0-0-0-0--0-0-0-0-4--4-4-4-4-3--3-3-3-3-0~-| 
D|-0--0-0-0-0-0--0-0-0-0-0--0-0-0-0-0--0-0-0-0-4--4-4-4-4-3--3-3-3-3-0~-| 
A|-----------------------2--2-2-2-2-2--2-2-2-2-2--2-2-2-2-0--0-0-0-0-2~-| 
E|-----------------------3--3-3-3-3-3--3-3-3-3-----------------------3~-| 

AfterChorus/Verse 
E|-------------------------|------------------------|\ 
B|-------------------------|------------------------| \ 
G|---2--2--2--2--2--2--2--2|--2--2--2--2--2--2--2--2|  \ 
D|--0--0--0--0--0--0--0--0-|-0--0--0--0--0--0--0--0-|   \  
A|-2--2--0--0--4--4--------|2--2--------0--0--0--0--|    \ 
E|-------------------3--3--|------3--3--------------|     \ 
 |                                                         \ 
 |                                                          X3 
 |                                                         /  
E|-------------------------|------------------------|     / 
B|--3--3--3--3--3--3--3--3-|-3--3--3--3--3--3--3--3-|    / 
G|---2--2--2--2--2--2--2--2|--2--2--2--2--2--2--2--2|   / 
D|-------------------------|------------------------|  / 
A|-2--2--0--0--4--4--------|2--2--------0--0--0--0--| / 
E|-------------------3--3--|------3--3--------------|/ 

PreChorus 
E|-3~-2~-3~-3~-| 
B|-3~-3~-3~-3~-| 
G|-0~-2~-0~-0~-| 
D|-0~-0~-0~-0~-| 
A|-2~----2~-2~-| 
E|-3~----3~-3~-| 

Chorus 
E|-2--2-2-2-2-2--2-2-2-2-3--3-3-3-3-3--3-3-3-3-2--2-2-2-2-3--3-3-3-3-0--0-0-0-0-0--0-0-0-0| 
B|-3--3-3-3-3-3--3-3-3-3-3--3-3-3-3-3--3-3-3-3-3--3-3-3-3-3--3-3-3-3-3--3-3-3-3-3--3-3-3-3| 
G|-2--2-2-2-2-2--2-2-2-2-0--0-0-0-0-0--0-0-0-0-4--4-4-4-4-0--0-0-0-0-3--3-3-3-3-3--3-3-3-3| 
D|-0--0-0-0-0-0--0-0-0-0-0--0-0-0-0-0--0-0-0-0-4--4-4-4-4-0--0-0-0-0-3--3-3-3-3-3--3-3-3-3| 
A|-----------------------2--2-2-2-2-2--2-2-2-2-2--2-2-2-2-2--2-2-2-2-0--0-0-0-0-0--0-0-0-0| 
E|-----------------------3--3-3-3-3-3--3-3-3-3------------3--3-3-3-3----------------------| 

E|-2--2-2-2-2-2--2-2-2-2-3--3-3-3-3-3--3-3-3-3-2--2-2-2-2-0--0-0-0-0-3~-| 
B|-3--3-3-3-3-3--3-3-3-3-3--3-3-3-3-3--3-3-3-3-3--3-3-3-3-3--3-3-3-3-3~-| 
G|-2--2-2-2-2-2--2-2-2-2-0--0-0-0-0-0--0-0-0-0-4--4-4-4-4-3--3-3-3-3-0~-| 
D|-0--0-0-0-0-0--0-0-0-0-0--0-0-0-0-0--0-0-0-0-4--4-4-4-4-3--3-3-3-3-0~-| 
A|-----------------------2--2-2-2-2-2--2-2-2-2-2--2-2-2-2-0--0-0-0-0-2~-| 
E|-----------------------3--3-3-3-3-3--3-3-3-3-----------------------3~-| 

Bridge 
E|-0--0-0-0-0-0--0-0-0-0-2--2-2-2-2-2--2-2-2-2-3-3-3-3-3-3-3-3-3-3-3-3-3-3-3-3-3-3-3-3-3-3-3-3| 
B|-0--0-0-0-0-0--0-0-0-0-2--2-2-2-2-2--2-2-2-2-3-3-3-3-3-3-3-3-3-3-3-3-3-3-3-3-3-3-3-3-3-3-3-3| 
G|-0--0-0-0-0-0--0-0-0-0-2--2-2-2-2-2--2-2-2-2-0-0-0-0-0-0-0-0-0-0-0-0-0-0-0-0-0-0-0-0-0-0-0-0|X2 
D|-2--2-2-2-2-2--2-2-2-2-4--4-4-4-4-4--4-4-4-4-0-0-0-0-0-0-0-0-0-0-0-0-0-0-0-0-0-0-0-0-0-0-0-0| 
A|-2--2-2-2-2-2--2-2-2-2-4--4-4-4-4-4--4-4-4-4-2-2-2-2-2-2-2-2-2-2-2-2-2-2-2-2-2-2-2-2-2-2-2-2| 
E|-0--0-0-0-0-0--0-0-0-0-2--2-2-2-2-2--2-2-2-2-3-3-3-3-3-3-3-3-3-3-3-3-3-3-3-3-3-3-3-3-3-3-3-3| 

 Chorus 
E|-2--2-2-2-2-2--2-2-2-2-3--3-3-3-3-3--3-3-3-3-2--2-2-2-2-3--3-3-3-3-0--0-0-0-0-0--0-0-0-0| 
B|-3--3-3-3-3-3--3-3-3-3-3--3-3-3-3-3--3-3-3-3-3--3-3-3-3-3--3-3-3-3-3--3-3-3-3-3--3-3-3-3| 
G|-2--2-2-2-2-2--2-2-2-2-0--0-0-0-0-0--0-0-0-0-4--4-4-4-4-0--0-0-0-0-3--3-3-3-3-3--3-3-3-3| 
D|-0--0-0-0-0-0--0-0-0-0-0--0-0-0-0-0--0-0-0-0-4--4-4-4-4-0--0-0-0-0-3--3-3-3-3-3--3-3-3-3| 
A|-----------------------2--2-2-2-2-2--2-2-2-2-2--2-2-2-2-2--2-2-2-2-0--0-0-0-0-0--0-0-0-0| 
E|-----------------------3--3-3-3-3-3--3-3-3-3------------3--3-3-3-3----------------------| 

E|-2--2-2-2-2-2--2-2-2-2-3--3-3-3-3-3--3-3-3-3-2--2-2-2-2-0--0-0-0-0-3~----5-5~| 
B|-3--3-3-3-3-3--3-3-3-3-3--3-3-3-3-3--3-3-3-3-3--3-3-3-3-3--3-3-3-3-3~----3-3~| 
G|-2--2-2-2-2-2--2-2-2-2-0--0-0-0-0-0--0-0-0-0-4--4-4-4-4-3--3-3-3-3-0~----2-2~| 
D|-0--0-0-0-0-0--0-0-0-0-0--0-0-0-0-0--0-0-0-0-4--4-4-4-4-3--3-3-3-3-0~----0-0~| 
A|-----------------------2--2-2-2-2-2--2-2-2-2-2--2-2-2-2-0--0-0-0-0-2~--------| 
E|-----------------------3--3-3-3-3-3--3-3-3-3-----------------------3~--------| 

THE END~~~ 

This song is for my long distance love Jessie. I love you so my love. I am with you through the distance 
share this page

See Also: