E-Chords
Hajdi Korosec

Ocka Moj(Chords)

Hajdi Korosec

Key: G
Intro 

          G     C     G       D        G     C     D       G 
e|---------------------------------------------------------------------------| 
B|---------------------------------------------------------------------------| 
G|--------4---4-------------4----------4---4-----------4---------------------| 
D|----5-7-------7-5-------5---7----5-7-------7-5-----5---7-5-----------------| 
A|--5-------5-------7-5-5--------5-------5-------7-5-------------------------| 
E|---------------------------------------------------------------------------| 


          G     C     G       D        G     C     D       G    D       G 
e|---------------------------------------------------------------------------| 
B|---------------------------------------------------------------------------| 
G|--------4---4-------------4----------4---4-----------4--------4-6b7-4------| 
D|----5-7-------7-5-------5---7----5-7-------7-5-----5---7-5--7---------7-5--| 
A|--5-------5-------7-5-5--------5-------5-------7-5-------------------------| 
E|---------------------------------------------------------------------------| 
verse 1 G Ocka moj se ne zaveda, da mi vsega je dovolj, G D hise sole in seveda njega samega s seboj. C G Pa me muci in masira kaksna moram biti jaz, D tisockrat sem do sedaj jokala ze na glas. verse 2 G Pravi mi kako na svetu je bilo nekoc lepo, G D on zivi se v tistem casu meni je za to hudo. C G Rada bi na ples hodila, rada bi na morje sla, D a on misli da bo pridna puncka le doma Refrean D G C On ne ve, da me boli, G D ko me nikamor ne pusti. D G C On ne ve, da so drugacni casi G D G zdaj ko so bili Chorus G C On ne ve, da me boli, G D ko me nikamor ne pusti. D G C On ne ve, da so drugacni casi G D G zdaj ko so bili
Solo 

          G     C     G       D        G     C     D       G 
e|---------------------------------------------------------------------------| 
B|---------------------------------------------------------------------------| 
G|--------4---4-------------4----------4---4-----------4---------------------| 
D|----5-7-------7-5-------5---7----5-7-------7-5-----5---7-5-----------------| 
A|--5-------5-------7-5-5--------5-------5-------7-5-------------------------| 
E|---------------------------------------------------------------------------| 


          G     C     G       D        G     C     D       G    D       G 
e|---------------------------------------------------------------------------| 
B|---------------------------------------------------------------------------| 
G|--------4---4-------------4----------4---4-----------4--------4-6b7-4------| 
D|----5-7-------7-5-------5---7----5-7-------7-5-----5---7-5--7---------7-5--| 
A|--5-------5-------7-5-5--------5-------5-------7-5-------------------------| 
E|---------------------------------------------------------------------------| 
verse 1 G Ocka moj se ne zaveda, da mi vsega je dovolj, G D hise sole in seveda njega samega s seboj. C G Pa me muci in masira kaksna moram biti jaz, D tisockrat sem do sedaj jokala ze na glas. Refrean D G C On ne ve, da me boli, G D ko me nikamor ne pusti. D G C On ne ve, da so drugacni casi G D G zdaj ko so bili Chorus D G C On ne ve, da me boli, G D ko me nikamor ne pusti. D G C On ne ve, da so drugacni casi G D G zdaj ko so bili D G C On ne ve, da so drugacni casi G D G zdaj ko so bili. ************************************ | / slide up | \ slide down | h hammer-on | p pull-off | ~ vibrato | + harmonic | x Mute note | b Bend | pb Pre-bend | br Bend release | pbr Pre-bend release | brb Bend release bend ************************************

roll up this ad to continue

share this page

See Also: