E-Chords
Gum

The Sky Opened Up(Chords)

Gum

Key: E

play the chords like this: 

   E     D         Asus2   A 

e|---0-----0---------0---------5---| 
B|-----0-----0---------0---5-----5-| 
G|---------------0-------6---6-----| 
D|-2-----0-----5--/7---------------| 
A|---------------------------------| 
E|---------------------------------| 
verse 1 E G Asus2 A The sky opened up and it felt good E G Asus2 A Felt just like I knew it would E G Asus2 A Doesn't mean that it means that much E G Asus2 A To us verse 2 E G Asus2 A Second comings could end well E G Asus2 A What about if you'll go to hell E G Asus2 A Is it really fair to care E G Asus2 All that much BREAK E G \ A / x4, use delay - repeat verses 1 & 2, delay guitar continues and drums kick in on the second verse
Chorus 

 All that much 
e|---------------------------------| 
B|---------------------------------| 
G|---------------------------------|    x4 
D|---------------------------------| 
A|-7-7-7---------------------------| 
E|-------3-3-3-5-3-5-5-5-5-5-5-5-0-| 


SOLO 

e|---------------------------------| 
B|---------------------------------| 
G|---------------------------------|    x4 
D|---------------------------------| 
A|-7-7-7---------------------------| 
E|-------3-3-3-5-3-5-5-5-5-5-5-5-0-| 

roll up this ad to continue

share this page

See Also: