E-Chords
Gum

Pink Skies(Chords)

Gum

Key: A
verse 1 

Amaj7                                   Cmaj7 
I like sitting around and watching the day go by 
Fmaj7  Dm  A 
I 
Amaj7                                 Cmaj7 
Spending all of my time wishing that I could change 
Fmaj7  Dm   
Change 

 
 A     G             F      Em   
e|----------------------------------| 
B|----------------------------------| 
G|----------------------------------|  band kicks in here 
D|------7------------------7-10---9-| 
A|4-5-7---------------8-10----------| 
E|----------------------------------|
D C Am Pink skies over me D C Am I can taste atomic waste D C Am Pink skies over me D C Am Am I ever gonna see again?
  D               C    Am      D                C    Am 
e|--------------------------------------------------------------| 
B|--------------------------------------------------------------| 
G|-----------------------7---9---7------------------------------|   x2 
D|---------9---10------------------------10---9--------10---9-7-| 
A|--------------------------------------------------------------| 
E|--------------------------------------------------------------| 
verse 2 Amaj7 Cmaj7 Smiling overnight until the sunrise Fmaj7 Dm A All night Amaj7 Cmaj7 Swirling all around aside of the pillow Fmaj7 Dm Aaah
 A     G             F      Em   
e|----------------------------------| 
B|----------------------------------| 
G|----------------------------------|   
D|------7------------------7-10---9-| 
A|4-5-7---------------8-10----------| 
E|----------------------------------| 
D C Am Pink skies over me D C Am I can taste atomic waste D C Am Pink skies over me D C Am Am I ever gonna see again?
D C Am D C Am e|--------------------------------------------------------------| B|--------------------------------------------------------------| G|-----------------------7---9---7------------------------------| x2 D|---------9---10------------------------10---9--------10---9-7-| A|--------------------------------------------------------------| E|--------------------------------------------------------------|
OUTRO 

  D                     Dm      Dsus4 
e|14--------------------13------15----15b17r15-| 
B|---------------------------------------------| 
G|---------------------------------------------| 
D|---------------------------------------------| 
A|---------------------------------------------| 
E|---------------------------------------------| 

  D                     Dm      Dsus4 
e|14--------------------13------15----15b17r15-| 
B|----------15-----13--------------------------| 
G|---------------------------------------------|  x2 
D|---------------------------------------------| 
A|---------------------------------------------| 
E|---------------------------------------------| 

  D                     Dm       
e|14--------------------13------13-------------| 
B|----------15-----13---12---------------------| 
G|---------------------------------------------|  
D|---------------------------------------------| 
A|---------------------------------------------| 
E|---------------------------------------------| 
end on D

roll up this ad to continue

share this page

See Also: