E-Chords
Greta Svabo Bech

Broken Bones(Chords)

Greta Svabo Bech

roll up this ad to continue

Key: E
 | 1 . 2 . 3 . 4 . | 1 . 2 . 3 . 4 . | 
e|-----------------|-----------------| 
B|-----------------|-----------------| 
G|-----------------|-----------------| 
D|-----0---2-------|-0---0---2-------| 
A|-----------------|-----------------| 
E|-0---------------|-----------------| 
E G I hold my tongue don't say a word C E Oh the fear is strong E G Oh the fear is holding me back C E The fear of breaking my bones G A E Ooooh ooooh ooooh E Breaking my bones E G I sit in the middle too scared to run C E Oh the fear is strong E G Oh the fear is holding me back C E But now I'm gonna make some noise
 | 1 . 2 . 3 . 4 . | 1 . 2 . 3 . 4 . | 
e|-----------------|-0---------------| 
B|-------------0---|---3-0-----------| 
G|---------0-2-----|-----------------| 
D|-2---------------|-----------------| 
A|-----------------|-----------------| 
E|-----------------|-----------------| 
G A E Show off your broken bones G A E Show off your broken bones G A E Show off your broken bones G A E Show off your broken bones E G Throw some plates and make some noise C E 'Til all the planets break E G If you don't say a word 'til tomorrow C E You'll be living regret G A E We're living in a screaming age G A If you don't shout a little louder C You may as well E Be a whisper G A E Show off your broken bones G A E Show off your broken bones G A E Show off your broken bones G A E Show off your broken bones
share this page

See Also: