Green Day

Missing You(Chords)

Green Day

Key: A

roll up this ad to continue

	        
Intro:

A    E     D   
F#m  D  E  A  (2x)


       A           C#m  D                                   A 
Waking up feeling naked in my clothes inside a room' that's vacant 
           A          C#m 
Lost my nerve, it's unnerving 
D                 E               A 
I know there is something I'm forgetting 


    D           A        E      A      D      A       E       A       
I searched the moon, I lost my head, I even looked under the bed 
   D           A        E        A 
I punched the walls, I hit the streets 
D                 E           
I'm pounding the pavement looking 


A      E       D 
  I'm missing you 
A      C#m     D    E 
  I'm missing you 
A        E     D                              E 
  You're not around and I'm a complete disaster 
A      C#m     D 
  I'm missing you .. 


    E    A            C#m       D                                   A 
Remember,   was our first time I told you I loved you at the bus station 
             A               C#m 
Don't forget,   cause it's not over 
D                E                 A 
I'm not lost cuz I'm just missing you 



    D           A        E      A      D      A       E       A       
I searched the moon, I lost my head, I even looked under the bed 
   D           A        E        A 
I punched the walls, I hit the streets 
D                 E           
I'm pounding the pavement looking 


A      E       D 
  I'm missing you 
A      C#m     D    E 
  I'm missing you 
A        E     D                              E 
  You're not around and I'm a complete disaster 
A      C#m     D 
  I'm missing you .. 


Solo : 

    A  E  D                   F#m D E   A 
e|-----------------------------------------------------| 
B|----------------------------5^7-7-5------------------| 
G|-7^9-9--7---7-7-7-7-7-7-7-7----------8-8-8-8-8-8-8-8-| 
D|-----------------------------------------------------| 
A|-----------------------------------------------------| 
E|-----------------------------------------------------| 

    A  E  D                   F#m D E   A 
e|------------------------------------9/12-12-12-12~~--| 
B|----------------------------5^7-7-5------------------| 
G|-7^9-9--7---7-7-7-7-7-7-7-7--------------------------| 
D|-----------------------------------------------------| 
A|-----------------------------------------------------| 
E|-----------------------------------------------------| 

A E D F#m D E A (2x) A E D Well she's my bud F#m D E A And she's my soul A E D I get so lost F#m D E A Out in the cold A E D Feels so far F#m D E A Like this lone star A E D It gets so hard F#m D E A When I'm missing you A E D F#m D E A (2x) A E D I'm missing you A C#m D E I'm missing you A E D E You're not around and I'm a fuckin disaster A C#m D I'm missing you .. A E D F#m D E A
share this page

See Also: