Green Day

Are We The Waiting?(Chords)

Green Day

Key: A

roll up this ad to continue

	        
Intro: 
(repeat 2x) 
   A                                          D 
E------------------------------------------------------2--------------------2-----------| 
B-----------2---------------------2-----------------3-----3-----3--------3-----3-----3--| 
G--------2-----2-----2---------2-----2-----2-----2-----------2--------2-----------2-----| 
D-----2-----------2---------2-----------2-----0--------------------0--------------------| 
A--0---------------------0--------------------------------------------------------------| 
E---------------------------------------------------------------------------------------|
Verse 1: (Continue the riff from the intro) A Starry nights, city lights D Coming down over me A Skyscrapers and stargazers D In my head A D Are we we are, are we we are the waiting unknown
(The riff is now played over F# and E): 
   F#                         E                      D(2) 
E----------------------------------------------------------------------------------------------| 
B-------------10-----------------------9--9--9\7--7-----------7--------------------7-----------| 
G---------11------11------11--------9--------9\7--7--------7-----7-----7--------7-----7-----7--| 
D-----11--------------11---------9----------------------7-----------7--------7-----------7-----| 
A--9--------------------------7----------------------5--------------------5-------------------- 
E----------------------------------------------------------------------------------------------|
This dirty town was burning down in my dreams (repeat above riff) Lost and found city bound in my dreams
D And screaming A D Are we we are, Are we we are the waiting... D And screaming A D Are we we are, Are we we are the waiting...
Verse 2: A Forget me nots, second thoughts D Live in isolation A D Heads or tails and fairytales in my mind A D Are we we are, Are we we are the waiting unknown F# E D The rage and love, the story of my life F# E D The Jesus of suburbia is a lie
D And screaming A D Are we we are, Are we we are the waiting... D And screaming A D Are we we are, Are we we are the waiting...
Outro: A D Are we we are, Are we we are the waiting... D And screaming A D Are we we are, Are we we are the waiting...unknown A D Are we we are, Are we we are the waiting...unknown
share this page

See Also: