E-Chords
Graveyard

Exit 97(Chords)

Graveyard

roll up this ad to continue

Key: D
Intro 

Rhythm guitar 
d|------12-----7-----5----------12-----5--------------| 
A|------13-----8-----6----------13-----6--------------| 
F|------14-----9-----7----------14-----7-----------11-| 
C|------14-----9-----7----------14-----7--------11----| 
G|-0-----------------------0-----------------/8-------| 
D|-----------------------0----------------------------| 

d|------12-----7-----5/7\5------12-----5--------------| 
A|------13-----8-----6/8\6------13-----6--------------| 
F|------14-----9-----7/9\7------14-----7-----------11-| 
C|------14-----9-----7/9\7------14-----7--------11----| 
G|-0-----------------------0-----------------/8-------| 
D|----------------------------------------------------| 

d|------12-----7-----5----------12-----5--------------| 
A|------13-----8-----6----------13-----6--------------| 
F|------14-----9-----7----------14-----7-----------11-| 
C|------14-----9-----7----------14-----7--------11----| 
G|-0-----------------------0-----------------/8-------| 
D|-----------------------0----------------------------| 

d|------12-----7-----5/7\5------12-----5--------------| 
A|------13-----8-----6/8\6------13-----6--------------| 
F|------14-----9-----7/9\7------14-----7-----------11-| 
C|------14-----9-----7/9\7------14-----7--------11----| 
G|-0-----------------------0-----------------/8-------| 
D|----------------------------------------------------| 

Solo guitar 
d|------12-----7-----5----------12-----5--------------| 
A|------13-----8-----6----------13-----6--------------| 
F|------14-----9-----7----------14-----7-----------11-| 
C|------14-----9-----7----------14-----7--------11----| 
G|-0-----------------------0-----------------/8-------| 
D|-----------------------0----------------------------| 

d|------12-----7-----5/7\5------12-----5--------------| 
A|------13-----8-----6/8\6------13-----6--------------| 
F|------14-----9-----7/9\7------14-----7-----------11-| 
C|------14-----9-----7/9\7------14-----7--------11----| 
G|-0-----------------------0-----------------/8-------| 
D|----------------------------------------------------| 

d|----------------------------------------------------| 
A|-----------------------8b10br8----------------------| 
F|--------------7h9--------------------7b9------------| 
C|-------7h9h10---------------------------------------| 
G|----------------------------------------------------| 
D|----------------------------------------------------| 

d|----------------------------------------------------| 
A|-------------------------------------5--------------| 
F|--------------7h9p7-5h7p5--------------5/7----------| 
C|-------7h9h10-------------5/7-----------------------| 
G|----------------------------------------------------| 
D|----------------------------------------------------| 


verse 1 

d|--------------------------------------0------------| 
A|--------------------------6/8\6---------6----------| 
F|---------9------8---5-----7/9\7-----------7--------| 
C|------10---10-9---9-7-----0--------------------7---| 
G|-0------------------------------------------/7-----| 
D|-------------------------------------------------8-| 

d|---------------------------------0-----------------| 
A|-----------------------------------0---------------| 
F|---------5-----4-----2-------2-------2-------------| 
C|-------7---7-5---5-3---3---1-----------------------| 
G|-0-----------------------2-------------2-----3---5-| 
D|---------------------------------------------------| 

d|--------------------------------------0------------| 
A|--------------------------6/8\6---------6----------| 
F|---------9------8---5-----7/9\7-----------7--------| 
C|------10---10-9---9-7-----0--------------------7---| 
G|-0------------------------------------------/7-----| 
D|-------------------------------------------------8-| 

d|---------------------------------0-----------------| 
A|-----------------------------------0---------------| 
F|---------5-----4-----2-------2-------2-------------| 
C|-------7---7-5---5-3---3---1-----------------------| 
G|-0-----------------------2-------------2-----3-----| 
D|---------------------------------------------------| 


Solo guitar 
d|-7----12-----5------------------------------7-----------| 
A|-8----13-----6-----6-5h6p5---10----10-12-10-8-----------| 
F|-9----14-----7-------------7-10----10-12-10-9-----------| 
C|-9----14-----7---------------10----10-12-10-9-----------| 
G|-7----12-----5----------------8-----8-10--8-7-----------| 
D|--------------------------------------------------------| 

d|--------------5----------------8--------------7-----7---| 
A|-10----13-----6-----6-5h6p5----8--------------8-----8-8-| 
F|-10----14-----7-------------7--9--------------9-----9-8-| 
C|-10----14-----7---------------10--------------9-----9-8-| 
G|--8----12-----5---------------10--------------7-----7-6-| 
D|-------------------------------8------------------------| 

d|-5-----------6-----------5-----------5-----------| 
A|-6-----6-5---6-----------6-----6-5---5-----------| 
F|-7---------7-7-----------7---------7-5-----------| 
C|-7-----------8-----------7-----------7-----------| 
G|-5-----------8-----------5-----------7-----------| 
D|-------------6-----------------------5-----------| 

d|-6---8-10---11-12--------------| 
A|-------------------------------| 
F|-------------------------------| 
C|--------------------------5--7-| 
G|----------------------5/7------| 
D|-------------------------------| 

verse 2 
d|--------------------------------------0------------| 
A|--------------------------6/8\6---------6----------| 
F|---------9------8---5-----7/9\7-----------7--------| 
C|------10---10-9---9-7-----0--------------------7---| 
G|-0------------------------------------------/7-----| 
D|-------------------------------------------------8-| 

d|---------------------------------0-----------------| 
A|-----------------------------------0---------------| 
F|---------5-----4-----2-------2-------2-------------| 
C|-------7---7-5---5-3---3---1-----------------------| 
G|-0-----------------------2-------------2-----3---5-| 
D|---------------------------------------------------| 

d|--------------------------------------0------------| 
A|--------------------------6/8\6---------6----------| 
F|---------9------8---5-----7/9\7-----------7--------| 
C|------10---10-9---9-7-----0--------------------7---| 
G|-0------------------------------------------/7-----| 
D|-------------------------------------------------8-| 

d|---------------------------------0-----------------| 
A|-----------------------------------0---------------| 
F|---------5-----4-----2-------2-------2-------------| 
C|-------7---7-5---5-3---3---1-----------------------| 
G|-0-----------------------2-------------2-----3-----| 
D|---------------------------------------------------| 


Outro 

                      'til the end 

d|------12-----7-----5----------12-----5--------------| 
A|------13-----8-----6----------13-----6--------------| 
F|------14-----9-----7----------14-----7-----------11-| 
C|------14-----9-----7----------14-----7--------11----| 
G|-0-----------------------0-----------------/8-------| 
D|-----------------------0----------------------------| 

Rhythm guitar 
d|------12-----7-----5----------12-----5--------------| 
A|------13-----8-----6----------13-----6--------------| 
F|------14-----9-----7----------14-----7-----------11-| 
C|------14-----9-----7----------14-----7--------11----| 
G|-0-----------------------0-----------------/8-------| 
D|-----------------------0----------------------------| 

d|------12-----7-----5/7\5------12-----5--------------| 
A|------13-----8-----6/8\6------13-----6--------------| 
F|------14-----9-----7/9\7------14-----7-----------11-| 
C|------14-----9-----7/9\7------14-----7--------11----| 
G|-0-----------------------0-----------------/8-------| 
D|----------------------------------------------------| 

d|------12-----7-----5----------12-----5--------------|---| 
A|------13-----8-----6----------13-----6--------------|---| 
F|------14-----9-----7----------14-----7-----------11-|---| 
C|------14-----9-----7----------14-----7--------11----|---| 
G|-0-----------------------0-----------------/8-------|-0-| 
D|-----------------------0----------------------------|---| 

Solo guitar 
d|----------------------------------------------------| 
A|-----------------------8b10br8----------------------| 
F|--------------7h9--------------------7b9------------| 
C|-------7h9h10---------------------------------------| 
G|----------------------------------------------------| 
D|----------------------------------------------------| 

d|----------------------------------------------------| 
A|-------------------------------------5--------------| 
F|--------------7h9p7-5h7p5--------------5/7----------| 
C|-------7h9h10-------------5/7-----------------------| 
G|----------------------------------------------------| 
D|----------------------------------------------------| 

d|----------------------------------------------------|----| 
A|------------------4h5p4-----------------------------|----| 
F|-------9pbr8------------5/7-------------------5-----|----| 
C|-----------------------------------------5-7----7p5-|-h7-| 
G|-------------------------------------5h7------------|----| 
D|----------------------------------------------------|----|  
share this page

See Also: