E-Chords
Glicose!

Meu Grande Dia(Chords)

Glicose!

Key: E
Intro 
E|-----------------------------------------------------| 
B|-----------------------------------------------------| 
G|-----------------------------------------------------| 
D|--9-9---7-7---9--9---8--8---7-7--6-6--5--3-3--5------| 
A|--9-9---7-7---11-11--10-10--9-9--8-8--7--5-5--7------| 
E|--7-7---5-5------------------------------------------|
E7 Eu estava em Gaspar uma gelada num bar A7 E7 E ali sentada aquela gata que a cidade inteira quer beijar B7 A7 E7 B7 Não sei o que é que me deu só sei que de hoje não vai passar E7 A7 Garçom uma e mais uma outra cerveja pra coragem eu criar E7 A7 Mas que fissura que desespero pra essa gata o que é que eu vou falar B7 A7 E7 B7 Meio tonto barrigudo feio e pobre o que é que eu vou invetar E7 A7 Posso falar palavras doces e poesias pra ela se apaixonar E7 Posso chegar chutando a mesa o sem vergonha B7 pra um motel eu vou te levar A7 E7 B7 Chega de papo é agora fui pra ela e comecei debulhar E7 A7 Eu quero um beijo só um beijo me da um beijo se não eu vou gritar E7 A7 Eu quero um beijo só um beijo me da um beijo se não eu vou gritar B7 A7 E7 B7 Vou gritar bem alto vou me fazer de louco vou te envergonhar uau Solo E7 A7 E7 B7 Bb7 E7 B7 E7 Ela me deu um beijo mas achou uma puta sacanagem A7 E Era pedir bonitinho não precisava toda essa chantagem B7 A7 E7 B7 Rimos a noite toda meu Deus foi a maior viagem E7 O bar tava lotado e percebi que eu tava arrebentando A7 E7 Era tapinha nas costas parabéns tu és o cara malandro B7 A7 E7 B7 Eu ali com aquela musa e a cidade toda me olhando E7 A7 Mas derrepente não sei de onde começou um barulho muito chato E7 B7 B7 A7 A7 Olhei pro lado que desespero despertador marcava Quinze pras quatro
E|------------------------------------------| 
B|------------------------------------------| 
G|------------------------------------------| 
D|---9--9---8--8---7-7--6-6--5--3-3--5------| 
A|---11-11--10-10--9-9--8-8--7--5-5--7------| 
E|------------------------------------------|

roll up this ad to continue

share this page

See Also: